» » »

Tire Me Tabs (ver.3)

Artists:  A B C D E F G H I J K L M N O P Q R S T U V W X Y Z # 

Tire Me Tabs (ver.3)

Rage Against The Machine
Rating:
0/5 (0 votes)

Hard to play? Try these video lessons and learn fast.
                the solo sounds alright when i play it during the first solo thing take the plug in out
of the jack and tap it on you bridge rocking teh wah back and forth and in the second 
part of the solo turn one pickup to zero and flick the swith back and forth
i guess while the bass is playing the guitar part is easy enough for you to figure out

                                                     
  verse/bridge          chorus                      solo part 2 
-------------------|------------------------------|---------------------------
-------------------|------------------------------|-12-12-12--12-12-12--------
---21v-21-21v-21v--|------------------------------|-12-12-12--12-12-12--------
-------------------|---3-0---3-0---3-0---3-0---3--|---------------------------
---19v-19-19v-19v--|---------------------------3--|---------------------------
-0-----------------|-0-----0-----0-----0-----0-3--|---------------------------
                                                 wah +  +  +   +  +  +        
                                                          thing after solo
---------------------------------------------------------|--------------------
-12-12-12-------------12-12-12--12-12-12--12-12-12-------|--------------------
-12-12-12-12/14/21b23-12-12-12--12-12-12--12-12-12-12/19-|-12/19--------------
---------------------------------------------------------|--------------------
---------------------------------------------------------|--------------------
---------------------------------------------------------|--------------------
  +  +  +  +           +  +  +   +  +  +   +  + +   +       -  +  -
            
Hard to play? Try these video lessons and learn fast. | Correct




comments powered by Disqus
↑ Back to top | Tablatures and chords are parodies/interpretations of the original songs. You may use it for private study, scholarship, research or language learning purposes only