» » »

Roll Right Tabs (ver.3)

Artists:  A B C D E F G H I J K L M N O P Q R S T U V W X Y Z # 

Roll Right Tabs (ver.3)

Rage Against The Machine
Rating:
0/5 (0 votes)

Hard to play? Try these video lessons and learn fast.
                Roll Right
~~~~~~~~~~~~~~~~~~~~~~~~~~~~~~~~~~~~~~~~~~~~~~~~~~~~~

Intro
|------------------------------------------|
|------------------------------------------|
|------------------------------------------|
|------11p0-9p0----------------------------|
|---------------11p0-10p0-9p0-7p0----------|
|--9p0----------------------------7p0-7-9--|

Then mess around with the 10th fret of the b string

Verse (no guitar)

Chorus
|------------------------------------------|
|------------------------------------------|
|------------------------------------------| 
|------11p0-9p0----------------------------|
|---------------11p0-10p0-9p0-7p0----------|
|--9p0----------------------------7p0-7-9--|

Solo (tapped with right hand)
|--0-----------------------------16-------------------------------|
|--0--------------------19----------------------------------------|
|--0-----------------------------------18-20----19----------------|
|--0-----------------19----19-18----18----------------------19----|
|--0-----------------------------------------18----17----17-------|
|--0--------------------------------------------------------------|

|--0--------------------------------------------------------------|
|--0----------------------------------------------------16-17-----|
|--0-------------------18----18----19-----------------------------|
|--0----------------16----------------17----------18--------------|
|--0-------------16-------16----16-------18----20----16-------15--|
|--0----------------------------------------17--------------------|

|--0--------------------------------------------------------------|
|--0-----------------------------------------------------17-------|
|--0-----------------------18----18----------17-------------------|
|--0--------------------21----16----------18----15----15----17----|
|--0-----------------19-------------15-14-------------------------|
|--0--------------------------------------------------------------|

|--0-------------------15----16----17----17------------0----------|
|--0-------------16----------------------------18--16--0----------|
|--0----------------------------16---------------------0----------|
|--0----------------15----15----------16----16---------0----------|
|--0--------------------------------------------------------------|
|--0---------------------------------------------------------0----|
                                                             ^hit eight times with wah
This is played four times
|------------------------|
|------------------------|
|------------------------|
|------------------------|
|-------5h7----------/5--|
|--0---------0-3--0------|

Outro
|------------------------|
|------------------------|
|------------------------|
|------------------------|
|-------5h7----------/5--|
|--0---------3----0------|
            
Hard to play? Try these video lessons and learn fast. | Correct




comments powered by Disqus
↑ Back to top | Tablatures and chords are parodies/interpretations of the original songs. You may use it for private study, scholarship, research or language learning purposes only