» » »

Rage Against The Machine, Renegade Of Funk Tabs (ver.3)

Artists:  A B C D E F G H I J K L M N O P Q R S T U V W X Y Z # 

Renegade Of Funk Tabs (ver.3)

Rage Against The Machine Tabs
 Rating:
4/5 (4 votes)
Renegade Of Funk lessons Tabs too difficult? Try these video lessons and learn fast
                Intro:
Distortion, Whammy Pedal & Wah-Wah
Whammy Pedal set one octave down with it fully depressed
     (if you don't have a Whammy Pedal play it this way)
Rock wah forward on each note
e|---------------------------------------------|
B|---------------------------------------------|
G|-9----9----9----9----10----10----10----10----|
D|---10---10---10---10----12----12----12----12-|
A|---------------------------------------------|
D|---------------------------------------------|


1st-3rd Verses:
Distortion
e|-----------------------|
B|-----------------------|
G|-----------------------|
D|-------------------3h5-|
A|-3-5---3-5---3-5---3h5-|
D|-----0-----0-----0-3h5-|


Chorus:
Distortion & Whammy Pedal
e|---------------|
B|---------------|
G|---------------|
D|---------------|
A|-------0-3-----|
D|-0-3-5-----3-0-|


Bridge:
Distortion
e|-------|
B|-------|
G|-------|
D|-------|
A|-5-----|
D|---0-0-|


1st Breakdown:
Same as intro


2nd Breakdown:
Distortion
e|-----|
B|-----|
G|-----|
D|-5h7-|
A|-5h7-|
D|-5h7-|


3rd Breakdown:
Distortion, Whammy Pedal, & Wah on and off
For the 2nd Breakdown Tom Morello plays his B-String many many times
and detunes down a half-step and back up.  I know this sounds weird,
but Tom Morello does stuff like that.


4th Verse:
Same as Chorus


Outro:
Same as Chorus, as Zach de la Rocha says "weh weh weh weh weh"
     as it fades out


Song Structure:
Intro: 2x
1st Verse: 3x
Chorus: 2x
2nd Verse: 2x
Bridge: 2x
3rd Verse: 2x
Chorus: 2x
1st Breakdown: 2x
Chorus: 2x
2nd Breakdown: 2x
3rd Breakdown: 1x
4th Verse: 5x
Outro: 4x


                     Tab Tone:
         Rhythm:                  Lead:
   Amp Model: Brit Hi Gain   Brit Hi Gain
       Drive: 4.5            10
        Bass: 10             0
      Middle: 7.5            1.5
      Treble: 7.5            10
  Ch. Volume: 10             9.5
      Reverb: n/a            n/a
Effect Tweak: n/a            10
      Effect: n/a            Flanger
       Notes: Bridge p/u,    Bridge p/u,
              HB             HB
            
Submit corrections

comments powered by Disqus
↑ Back to top | Rage Against The Machine Tabs for Renegade Of Funk. Lyrics for acoustic guitar and electric guitar. Tablatures and chords are parodies/interpretations of the original songs. You may use it for private study, scholarship, research or language learning purposes only