» » »

Rage Against The Machine, People Of Tha Sun Tabs (ver.1)

Artists:  A B C D E F G H I J K L M N O P Q R S T U V W X Y Z # 

People Of Tha Sun Tabs (ver.1)

Rage Against The Machine Tabs
 Rating:
4/5 (4 votes)
People Of Tha Sun lessons Tabs too difficult? Try these video lessons and learn fast
                Tuning: Standard (eBGDAE)

The majority of this song is played by rubbing an allen wrench
(allen key) on the strings at theindicated fret (a regular key
or any metalic object with edges works basically the same
though). While doing this with the right hand, use your left
hand to slightly mute the strings where they connect with the
neck of the guitar to create a harmonic effect. Don't push the
strings of the guitar against the fret-board with the key, instead
just scratch the strings, and slip it off when needed to create
the open sound. Stop the strings immediately after an open to
get the right sound.

\ 	    slide down
/ 	    slide up
h 	    hammer on
/\/\/\/\/\  vibrato
(?)         note not picked
+1          steps to bend

INTRO
Riff A - Gtr. 1
e-------------------------------------
B-------------------------------------
G-------------------------------------
D-------------------------------------  x8
A-\2/3\2/3\2\0------\2/3\2/3\2\0------
E-------------------------------------
 *w/ allen wrench

Riff A - Gtr. 1 & 2 (when bass enters)
e-------------------------------------
B-------------------------------------
G-------------------------------------
D-------------------------------------  x11
A-\2/3\2/3\2\0------\2/3\2/3\2\0------
E-------------------------------------
 *w/ allen wrench

Fill 1 - Gtr. 1 & 2
e-------------------------------------
B-------------------------------------
G-------------------------------------
D-------------------------------------
A-\2/3\2/3\2/3\2/3\2/3\2/3/14\\\------
E-------------------------------------
 *w/ allen wrench          *w/ fingers


CHORUS
Riff B - Gtr. 1 & 2
e-------------------------------------
B-------------------------------------
G-------------------------------------
D-------------------------------------  x7
A-------------------------------------
E-\2/3\2/3\2/3\2/3\2/3\2/3--1h3-------
 *w/ allen wrench          *w/ fingers

Fill 2 - Gtr. 1 & 2
e-------------------------------------
B-------------------------------------
G-------------------------------------
D-------------------------------------
A-------------------------------------
E-\2/3\2/3\2/3/21---21/\/\/\/\/\/\/21\
 *w/ allen wrench   *w/ fingers


VERSE
Riff A - Gtr. 1 & 2
e-------------------------------------
B-------------------------------------
G-------------------------------------
D-------------------------------------  x4
A-\2/3\2/3\2\0------\2/3\2/3\2\0------
E-------------------------------------
 *w/ allen wrench

Riff C - Gtr. 1

If you dont have a tremalo bar, just play it on E with the 5th
fret and bend to B (7th fret)

	       +1
e-------------/--\--------------------
B------------/----\-------------------
G-----------/------\--------0---------
D----------/--------\-------0---------  x7
A-0------(0)--------(0)---------------
E-------------------------------------
 *picked *w/ tremalo bar

	       +1
e-------------/--\--------------------
B------------/----\-------------------
G-----------/------\------------------
D----------/--------\-----------------
A-0------(0)--------(0)---------------
E-----------------------14\\\\\\\\\\\\
 *picked *w/ tremalo bar *w/allen wrench


CHORUS
Riff B - Gtr. 1 & 2
e-------------------------------------
B-------------------------------------
G-------------------------------------
D-------------------------------------  x8
A-------------------------------------
E-\2/3\2/3\2/3\2/3\2/3\2/3--1h3-------
 *w/ allen wrench          *w/ fingers


2 BAR
Riff A - Gtr. 1
e-------------------------------------
B-------------------------------------
G-------------------------------------
D-------------------------------------  x2
A-\2/3\2/3\2\0------\2/3\2/3\2\0------
E-------------------------------------
 *w/ allen wrench


CHORUS
Riff B - Gtr. 1 & 2
e-------------------------------------
B-------------------------------------
G-------------------------------------
D-------------------------------------  x8
A-------------------------------------
E-\2/3\2/3\2/3\2/3\2/3\2/3--1h3-------
 *w/ allen wrench          *w/ fingers

Esto está para ésos asesinados en México para defender
	       su Libertad.
            
Submit corrections

comments powered by Disqus
↑ Back to top | Rage Against The Machine Tabs for People Of Tha Sun. Lyrics for acoustic guitar and electric guitar. Tablatures and chords are parodies/interpretations of the original songs. You may use it for private study, scholarship, research or language learning purposes only