» » »

New Millenium Homes Bass tabs (ver.5)

Artists:  A B C D E F G H I J K L M N O P Q R S T U V W X Y Z # 

New Millenium Homes Bass tabs (ver.5)

Rage Against The Machine
Rating:
0/5 (0 votes)

Tabs too difficult? Try these video lessons and learn fast.
                drop d
h = hammer on
Intro

G|--------------------|
D|--------------------|
A|-----5h7---5--------|
D|-2-2------2----7----|
                   Repeat x10

G|----------------------------|
D|------------5--7------------|
A|-----5h7----7---------------|
D|-2-2------2------2--5h7--2--|

Verse

G|--------------------|
D|--5-------5---------|
A|--5-------5---------|
D|----2-22----2-2-22--|
                    Repeat x8

Pre Chorus

G|-------------------------------|
D|------222--------------222-----|
A|-------------------------------|
D|---222---222--------222---222--|
                    Repeat x4

Chorus

G|----------------------|
D|----------------------|
A|-----5----------5h7---|
D|--2-----7---2-2-------|
                   Repeat x7

G|-------------------------|
D|------------5--7---------|
A|-----5h7----7------------|
D|-2-2------2------2--5h7--|

Verse

G|--------------------|
D|--5-------5---------|
A|--5-------5---------|
D|----2-22----2-2-22--|
                Repeat x4
Added lick

G|---------------------------|
D|--0-----7-5------5---------|
A|--2--2--5-5------5---------|
D|------------2-22----2-222--|

Pre Chorus

Solo

G|------------------------------------------|
D|------------------------------------------|
A|-----5----------5h7-----5----------5h7----|
D|--2-----7---2-2-------2-----7---2-2-------|

G|------------------------------------------|
D|------------------------------------------|
A|-----5----------5h7-----5----------5h7----|
D|--2-----7---2-2-------2-----7---2-2-------|

G|----------------------------------|
D|-------7--5-----------------7--5--|
A|------------------5h7-------------|
D|--2----------2-2------2-----------|

G|--------------------------------------999--|
D|--2----------7--5------------5--77-55------|
A|-----------------------5h7-----7-----------|
D|--22--5--2--------22-------2---------------|

G|----------------------|   G|----------------------|
D|----------------------|   D|----------------------|
A|-----5----------5h7---|   A|-----5----------5h7---|
D|--2-----7---2-2-------|   D|--2-----7---2-2-------|

G|----------------------|   G|----------------------|
D|----------------------|   D|----------------------|
A|-----5----------5h7---|   A|-----5----------5h7---|
D|--2-----7---2-2-------|   D|--2-----7---2-2-------|

G|----------------------|   G|----------------------|
D|----------------------|   D|----------------------|
A|-----5----------5h7---|   A|-----5----------5h7---|
D|--2-----7---2-2-------|   D|--2-----7---2-2-------|

G|----------------------|   G|----------------------|
D|----------------------|   D|-----5--7-------------|
A|-----5----------5h7---|   A|-------7--------------|
D|--2-----7---2-2-------|   D|--2-------2----5h7--2-|
            
Tabs too difficult? Try these video lessons and learn fast.




comments powered by Disqus
↑ Back to top | Tablatures and chords are parodies/interpretations of the original songs. You may use it for private study, scholarship, research or language learning purposes only