>
 >
New Millenium Homes 2

New Millenium Homes 2 Bass Tabs

Rage Against The Machine - New Millenium Homes 2 chords, tabs, tablatures, lyrics

Guitar lessons | Add/correct | Request | Top 50 tabs Artists:  A B C D E F G H I J K L M N O P Q R S T U V W X Y Z 0-9

New Millenium Homes 2 Bass Tabs – Rage Against The Machine

CD, Sheet music, Poster

Do you like New Millenium Homes 2? Share with your friends now
Bass Tabs
Track:New Millenium Homes
Bassist:Tim Commerford

Intro Riff:
G-----------------|
D-----------------|
A-----5^7---5-0---|
D-0-0-----0-------|

Then when the guitar joins in play:
G-----------------|
D-----------------|
A---5-0-----5^7---|
D-0-----0-0-------|

intro fill(at end):
G-----------------|
D---5---7---------|
A-----7-----------|
D-0-------0-3^5-0~|

Verse1:
G-------------------|
D-5-------5---------|
A-7-------7---------|
D---0-0-0---0-0-0-0-|

Pre Chorus:

G------------------------|
D------------------------|
A-------7-7-7----------R-|
D-0-0-0-------0-0-0------|

Verse2:Dont play the "205" part 
on the first few times
G----------------------------|
D--5------5-----------:------|
A--7------7-----------:-2-0-5|
D---0-0-0---0-0-0-0----------|

Solo Chorus
(play after chorus has been played once)
G-----------------|----------------|
D---5/7-5---------|--5/7-5---------|
A------------5h7--|--------7h5-----|
D-0------0-0----0-|-----------7-3-0|

G-----------------|------------999|
D---5/7-5---------|-/5---77-55----|
A------------5h7--|----7----------|
D-0------0-0----0-|---------------|

Thats It!





Comments


Popular Rage Against The Machine tabs & chords
Autologic 1 Bass Tabs
Freedom 2 Bass Tabs
Guerrila Radio 3 Bass Tabs
Im Housin 2 Bass Tabs
The Ghost Of Tom Joad 2 Bass Tabs
Born As Ghosts  Chords
Bullet In The Head Drum Tabs
Darkness Of Greed Tabs
Im Housin 3 Tabs
Killing In The Name 1 Tabs


Song lyrics



↑ Back to top | Tablatures and chords are parodies/interpretations of the original songs. You may use it for private study, scholarship, research or language learning purposes only
© 2014 AZChords.com Contact us | Privacy policy | DMCA | Add/correct tabs | Request tabs | Top 50 tabs