» » »

Maggie's Farm Bass tabs (ver.1)

Artists:  A B C D E F G H I J K L M N O P Q R S T U V W X Y Z # 

Maggie's Farm Bass tabs (ver.1)

Rage Against The Machine
Rating:
0/5 (0 votes)

Tabs too difficult? Try these video lessons and learn fast.
                Band: Rage Against The Machine.
Done By: Tim Commerford.


Guitar Intro: (tabbed my own bass line)

G|-9---9---9---9---7---7---7---7---9---9---9---9---7---7---7----------------|
D|---9---9---9---9---9---9---9---9---9---9---9---9---9---9------------------|
A|--------------------------------------------------------------------------|
E|--------------------------------------------------------------------------|

verse 1: 4 times (0:10)

G|------------------------------------------7-----9-7-----------------------|
D|--------------------------------------7-9---9-7-----9---------------------|
A|-----5----------5-----7-------5-------------------------------------------|
E|-7-7---7-5-7--7---5-7-----7-7---7-5-7-------------------------------------|

verse 2: 8 times (0:33)

G|--------------------------------------------------------------------------|
D|--------------------------------------------------------------------------|
A|-----5----------5-----7-------5-------------------------------------------|
E|-7-7---7-5-7--7---5-7-----7-7---7-5-7-------------------------------------|

Pre Chorus: 4 times (1:17)

G|--------------------------------------------------------------------------|
D|--------------------------------------------------------------------------|
A|--------------------------------------------------------------------------|
E|-7-7-X-X-7-X-X-7-X-X-X-X--------------------------------------------------|

verse 2: 4 times (1:27)

G|--------------------------------------------------------------------------|
D|--------------------------------------------------------------------------|
A|-----5----------5-----7-------5-------------------------------------------|
E|-7-7---7-5-7--7---5-7-----7-7---7-5-7-------------------------------------|

Chorus: (1:39)

G|--------------------------------------------------------------------------|
D|--------------------------------------------------------------------------|
A|--------------------------------------------------------------------------|
E|-5555555500000000--7-7-x-x-7-x-x-7-x-x-x-x--7-7-x-x-7-x-x-7-x-x-x-x-------|

G|--------------------------------------------------------------------------|
D|--------------------------------------------------------------------------|
A|--------------------------------------------------------------------------|
E|-5555555500000000--7-(hold)-----------------------------------------------|

verse 1: 2 times (2:00)

G|------------------------------------------7-----9-7-----------------------|
D|--------------------------------------7-9---9-7-----9---------------------|
A|-----5----------5-----7-------5-------------------------------------------|
E|-7-7---7-5-7--7---5-7-----7-7---7-5-7-------------------------------------|

verse 2: 8 times (2:12)

G|--------------------------------------------------------------------------|
D|--------------------------------------------------------------------------|
A|-----5----------5-----7-------5-------------------------------------------|
E|-7-7---7-5-7--7---5-7-----7-7---7-5-7-------------------------------------|

Pre Chorus: 4 times (2:57)

G|--------------------------------------------------------------------------|
D|--------------------------------------------------------------------------|
A|--------------------------------------------------------------------------|
E|-7-7-X-X-7-X-X-7-X-X-X-X--------------------------------------------------|

verse 2: 4 times (3:08)

G|--------------------------------------------------------------------------|
D|--------------------------------------------------------------------------|
A|-----5----------5-----7---------------------------------------------------|
E|-7-7---7-5-7--7---5-7-----------------------------------------------------|

Chorus: (3:20)

G|--------------------------------------------------------------------------|
D|--------------------------------------------------------------------------|
A|--------------------------------------------------------------------------|
E|-5555555500000000--7-7-x-x-7-x-x-7-x-x-x-x--7-7-x-x-7-x-x-7-x-x-x-x-------|

G|--------------------------------------------------------------------------|
D|--------------------------------------------------------------------------|
A|--------------------------------------------------------------------------|
E|-5555555500000000--7-(hold)-----------------------------------------------|

Pre Chorus: 8 times (3:41)
G|--------------------------------------------------------------------------|
D|--------------------------------------------------------------------------|
A|--------------------------------------------------------------------------|
E|-7-7-X-X-7-X-X-7-X-X-X-X--------------------------------------------------|

Guitar only: 2 times (4:02)

G|-9---9---9---9---7---7---7---7---9---9---9---9---7---7---7---7------------|
D|---9---9---9---9---9---9---9---9---9---9---9---9---9---9---9---9----------|
A|--------------------------------------------------------------------------|
E|--------------------------------------------------------------------------|

On the 3th time:

Guitar:

G|-9---9---9---9---7---7---7---7---9---9---9---9---7---7---7---7------------|
D|---9---9---9---9---9---9---9---9---9---9---9---9---9---9---9---9----------|
A|--------------------------------------------------------------------------|
E|--------------------------------------------------------------------------|

Bass: (listen to the song)

G|--------------------------------------------------------------------------|
D|--------------------------------------------------------------------------|
A|--------------------------------------------------------------------------|
E|----------------07---------------07-------------07--------------07--------|


Chorus: (4:35)

G|--------------------------------------------------------------------------|
D|--------------------------------------------------------------------------|
A|--------------------------------------------------------------------------|
E|-5555555500000000--7-7-x-x-7-x-x-7-x-x-x-x--7-7-x-x-7-x-x-7-x-x-x-x-------|

G|--------------------------------------------------------------------------|
D|--------------------------------------------------------------------------|
A|--------------------------------------------------------------------------|
E|-5555555500000000--7------------------------------------------------------|

verse 3: distortion guitar (4:57)

G|------------------------------------------7-----9-7-----------------------|
D|--------------------------------------7-9---9-7-----9---------------------|
A|-----5----------5-----7-------5-------------------------------------------|
E|-7-7---7-5-7--7---5-7-----7-7---7-5-7-------------------------------------|

On The 2th time:
Bass:

G|------------------------------------------7-----9-7-----------------------|
D|--------------------------------------7-9---9-7-----9---------------------|
A|--------------------------------------------------------------------------|
E|--------------------------------------------------------------------------|

verse 1: Play till the end (5:10)

G|------------------------------------------7-----9-7-----------------------|
D|--------------------------------------7-9---9-7-----9---------------------|
A|-----5----------5-----7-------5-------------------------------------------|
E|-7-7---7-5-7--7---5-7-----7-7---7-5-7-------------------------------------|

G|--------------------------------------------------------------------------|
D|--------------------------------------7-9---------------------------------|
A|-----5----------5-----7-------5-------------------------------------------|
E|-7-7---7-5-7--7---5-7-----7-7---7-5-7-------------------------------------|
            
Tabs too difficult? Try these video lessons and learn fast.




comments powered by Disqus
↑ Back to top | Tablatures and chords are parodies/interpretations of the original songs. You may use it for private study, scholarship, research or language learning purposes only