» » »

Rage Against The Machine, Maggie's Farm Tabs (ver.3)

Artists:  A B C D E F G H I J K L M N O P Q R S T U V W X Y Z # 

Maggie's Farm Tabs (ver.3)

Rage Against The Machine Tabs
Rating:
0/5 (0 votes)
Maggie's Farm lessons Tabs too difficult? Try these video lessons and learn fast
                RAGE AGAINST THE MACHINE - Maggies farm
Drop D tuning. (D,A,D,G,B,e)
This version doesnt sound right if you play it with the cd
but if you play it on it's own it sounds fine

Intro
|-12----12----12----12-----10----10----10----10---
|----12----12----12----12-----12----12----12----12
|------------------------------------------------- Play twice 
|------------------------------------------------- followed by
|-------------------------------------------------
|-------------------------------------------------


|------------------
|------------------
|------------------
|-15\\-------------
|-15\\-------------
|-15\\-------------


|-------------------------------------------------
|-------------------------------------------------
|-------------------------------------------------
|----------------------------------------3-------- Repeat 4 times
|------------------------------------3-5---5-3----
|-0-0-3-0-0-0--0-3-0-0-5--0-0-3-0-0-0----------5-3

Verse part one

|-------------------------------------
|-------------------------------------
|-------------------------------------
|-------------------------------------
|-------------------------------------
|-0-0-3-0-0-0--0-3-0-0-5--0-0-3-0-0-0-
 PM...........................
Play this for the first four lines of the verse

Then play

|----------------------------
|----------------------------
|-------7-----5--------------
|-------7-----5--------------
|-------5-----3--------------
|--0-0----0-0----------------
 PM...    ...

Then repeat part one. Then repeat part two and part one

Then tom moves into a heavier section

|-----------------------
|-----------------------
|----------------------- Play this for times listen to the cd for the
|-----------------------  rhythm
|-----xx---xx---xxxx----
|-0-0-xx-0-xx-0-xxxx----

|----------------------- 
|-----------------------
|----------------------- Play this four times as well.
|-----------------------
|-----------------------
|-0-0-3-0-0-0-0-3-0-0-5-

|-----------------------------------
|-----------------------------------
|-----------------------------------
|-5-5-5-5-5-5-5-5-3-3-3-3-3-3-3-3---
|-5-5-5-5-5-5-5-5-3-3-3-3-3-3-3-3---
|-5-5-5-5-5-5-5-5-3-3-3-3-3-3-3-3---

|-----------------------
|-----------------------
|----------------------- 
|-----------------------  
|-----xx---xx---xxxx----
|-0-0-xx-0-xx-0-xxxx----

|------------------------------------
|------------------------------------
|------------------------------------
|-5-5-5-5-5-5-5-5-3-3-3-3-3-3-3-3--0- let the last chord ring
|-5-5-5-5-5-5-5-5-3-3-3-3-3-3-3-3--0-
|-5-5-5-5-5-5-5-5-3-3-3-3-3-3-3-3--0-


|------------------------------------------------------- Play twice 
|------------------------------------------------------- without the
|------------------------------------------------------- slide on the
|15\\------------------------------------------3-------- second time
|15\\--------------------------------------3-5---5-3----  
|15\\--0-0-3-0-0-0--0-3-0-0-5--0-0-3-0-0-0----------5-3- 

then play the verse again its exactly the same.

Then you play some thing very weird and i cant quite figure it out i know for a fact he is using two guitars in it becasue its impossible to play it with one.

its something like

|------------
|-10-8\\-----
|------------
|------------
|------------
|------------

then over the top

|--------------------------------- ~= bend up a tiny bit and release
|-10-12-10--10-12-10--10-12~12-10-    immeadeatly
|---------------------------------
|---------------------------------
|---------------------------------
|---------------------------------

play this while Zac whispers some lyrics

|-12----12----12----12-----10----10----10----10---
|----12----12----12----12-----12----12----12----12
|------------------------------------------------- 
|------------------------------------------------- 
|-------------------------------------------------
|-------------------------------------------------

then tom uses his 2 guitar trick again

|-12----12----12---\-
|----12----12----12\-
|--------------------
|--------------------
|--------------------
|--------------------

then the other plays

|-----
|-----
|-----
|-3-5-
|-3-5-
|-3-5-

The first one plays

|-10----10----10---\-
|----12----12----12\-
|--------------------
|--------------------
|--------------------
|--------------------

And the other plays

|-----
|-----  repeat this sequence twice
|-----
|-0-3-
|-0-3-
|-0-3- 

Then play


|------------------------------------
|------------------------------------
|------------------------------------
|-5-5-5-5-5-5-5-5-3-3-3-3-3-3-3-3--0- let the last chord ring
|-5-5-5-5-5-5-5-5-3-3-3-3-3-3-3-3--0-
|-5-5-5-5-5-5-5-5-3-3-3-3-3-3-3-3--0-

|-----------------------
|-----------------------
|----------------------- 
|-----------------------  
|-----xx---xx---xxxx----
|-0-0-xx-0-xx-0-xxxx----


Then all tom does is play the intro again but at half time.
            

comments powered by Disqus
↑ Back to top | Rage Against The Machine Tabs for Maggie's Farm. Lyrics for acoustic guitar and electric guitar. Tablatures and chords are parodies/interpretations of the original songs. You may use it for private study, scholarship, research or language learning purposes only