>
 >
Maggies Farm 5

Maggies Farm 5 Guitar Tabs

Rage Against The Machine - Maggies Farm 5 chords, tabs, tablatures, lyrics

Guitar lessons | Add/correct | Request | Top 50 tabs Artists:  A B C D E F G H I J K L M N O P Q R S T U V W X Y Z 0-9

Maggies Farm 5 Guitar Tabs – Rage Against The Machine

CD, Sheet music, Poster

Do you like Maggies Farm 5? Share with your friends now
Tabs
Hello, I'm the Unregistered MoFo that put out a verse to this song. I've worked on a 
more and now its pretty the way God wants it to be played... RIGHT!

Guitar I (Drop B)
Guitar II (Drop B)
Guitar III (Drop B)


Guitar I
|-12----12----12----12----10----10----10----10----12----12----|
|----12----12----12----12----12----12----12----12----12----12-|
|-------------------------------------------------------------|
|-------------------------------------------------------------|
|-------------------------------------------------------------|
|-------------------------------------------------------------|


|-12----12----10----10----10~~-|------------|
|----12----12----12----12------|------------|
|------------------------------|------------|
|------------------------------|------------|
|------------------------------|------------|
|------------------------------|----14/0----|


|-----------------------------------------------------|   4 times
|-----------------------------------------------------|
|-----------------------------------------------------|
|-------------------------------------------0---------|
|---------------------------------------0-2---2-0-----|
|-0--0--3p0-0-0--0-3p0-5--0--0--3p0-0-0-----------5-3-|

This part is played with light distortion, and the bass over sounding it


|-----------------------------------------------|     4 times
|-----------------------------------------------|
|-----------------------------------------------|
|-----------------------------------------------|
|-----------------------------------------------|
|-0--0--3p0-0-0--0-3p0-5--0--0--3p0-0-0---------|


|--------------------------------------------------------------|  2 times
|--------------------------------------------------------------|
|-------7~~---------2~~----------------------------------------|
|-------7~~---------2~~----------------------------------------|
|-------5~~---------0~~----------------------------------------|
|-0--0-------0--0--------0--0--3p0-0-0--0-3p0-5--0--0--3p0-0-0-|


 4 times              4 times
|--------------------|------------------------|  Kick it up a little
|--------------------|------------------------|
|--------------------|------------------------|
|--------------------|------------------------|
|--------------------|------------------------|
|-0-0-XX-0-XX-0-XXXX-|-0--0--3p0-0-0--0-3p0-5-|


|---------------------------------|--------------------| Play once and then
|---------------------------------|--------------------| loop
|-7-7-7-7-7-7-7-7-2-2-2-2-2-2-2-2-|--------------------|
|-7-7-7-7-7-7-7-7-2-2-2-2-2-2-2-2-|--------------------|
|-5-5-5-5-5-5-5-5-0-0-0-0-0-0-0-0-|--------------------|
|---------------------------------|-0-0-XX-0-XX-0-XXXX-|


|-----------|------|
|-----------|------|
|-----------|------|
|-----------|------|
|-----------|------|
|-0~~~~~~~~-|-14/0-|


|-----------------------------------------------------|   2 times
|-----------------------------------------------------|
|-----------------------------------------------------|
|-------------------------------------------0---------|
|---------------------------------------0-2---2-0-----|
|-0--0--3p0-0-0--0-3p0-5--0--0--3p0-0-0-----------5-3-|
|
|Guitar II
|-----------------------------------------------------| bend this as high
|-----------------------------------------------------| as you fucking
|------------------------------------------12b--------| can, and come down
|-----------------------------------------------------|
|-----------------------------------------------------|
|-----------------------------------------------------|


Guitar I

|-----------------------------------------------|     4 times
|-----------------------------------------------|
|-----------------------------------------------|
|-----------------------------------------------|
|-----------------------------------------------|
|-0--0--3p0-0-0--0-3p0-5--0--0--3p0-0-0---------|


|--------------------------------------------------------------|  2 times
|--------------------------------------------------------------|
|-------7~~---------2~~----------------------------------------|
|-------7~~---------2~~----------------------------------------|
|-------5~~---------0~~----------------------------------------|
|-0--0-------0--0--------0--0--3p0-0-0--0-3p0-5--0--0--3p0-0-0-|


 4 times              4 times
|--------------------|------------------------|
|--------------------|------------------------|
|--------------------|------------------------|
|--------------------|------------------------|
|--------------------|------------------------|
|-0-0-XX-0-XX-0-XXXX-|-0--0--3p0-0-0--0-3p0-5-|


|---------------------------------|--------------------| Play once and then
|---------------------------------|--------------------| loop
|-7-7-7-7-7-7-7-7-2-2-2-2-2-2-2-2-|--------------------|
|-7-7-7-7-7-7-7-7-2-2-2-2-2-2-2-2-|--------------------|
|-5-5-5-5-5-5-5-5-0-0-0-0-0-0-0-0-|--------------------|
|---------------------------------|-0-0-XX-0-XX-0-XXXX-|


|-----------|------|
|-----------|------|
|-----------|------|
|-----------|------|
|-----------|------|
|-0~~~~~~~~-|-14/0-|


Solo (or Duet, whatever)

Guitar 1
|----------------------------------------------------------------- |  \
|-------------------------------------------------------------| -- |
|-12-12-12-12-12-12-12-12-12-12-12-12-12-12-12-12-12-12-12-12-| -- |
|-------------------------------------------------------------| -- |
|----------------------------------------------------------------- |  | 4 times
|-------------------------------------------------------------| -- |
|                                                                |
|Guitar II                                                       |
|-------------------------------------------------------------| -- |
|---------------------12b-------------------------------------| -- |
|-------------------------------------------------------------| -- |
|-------------------------------------------------------------| -- |
|-------------------------------------------------------------| -- |
|----------------------------------------------------------------- | /
|
|Guitar 1
|-------------------------------------------|
|-------------------------------------------|
|-12-12-12-12-12-12-12-12-12-12-12-12-12-12-|
|-------------------------------------------|
|-------------------------------------------|
|-------------------------------------------|
|
|Guitar II
|-------------------------------------------| 2 times
|-------------------------------------------|
|-12-15-12--12-15-12--12-15-12-15-12-17-12--|
|-------------------------------------------|
|-------------------------------------------|
|-------------------------------------------|


Guitar I  (we gonna get Clean Again!)
|-12----12----12----12----10----10----10----10----| 4 times
|----12----12----12----12----12----12----12----12-|
|-------------------------------------------------|
|-------------------------------------------------|
|-------------------------------------------------|
|-------------------------------------------------|

|-12----12----12-----------10----10----10----------| 2 times
|----12----12----12-----------12----12----12-------|
|--------------------------------------------------|
|--------------------------------------------------|
|--------------------------------------------------|
|-------------------0-3----------------------0-3---|
   clean         distorted    clean       distorted


|---------------------------------|--------------------|
|---------------------------------|--------------------|
|-7-7-7-7-7-7-7-7-2-2-2-2-2-2-2-2-|--------------------|
|-7-7-7-7-7-7-7-7-2-2-2-2-2-2-2-2-|--------------------|
|-5-5-5-5-5-5-5-5-0-0-0-0-0-0-0-0-|--------------------|
|---------------------------------|-0-0-XX-0-XX-0-XXXX-|


|--------|
|--------|
|--------|
|--------|
|--------|
|-0~~~~~-|


|-----------------------------------------------------|   2 times
|-----------------------------------------------------|  at slow
|-----------------------------------------------------|   tempo, then
|-------------------------------------------0---------|   fast again
|---------------------------------------0-2---2-0-----|
|-0--0--3p0-0-0--0-3p0-5--0--0--3p0-0-0-----------5-3-|


(5:22) Guitar II       Also the altenative to main riff
|-----|                |-------------------|
|-----|                |-------------------|
|-12b-|                |-------------------|
|-----|                |-------------------|
|-----|                |-------------------|
|-----|                |-0-0-3p0-0-5---6---|


(5:53) Guitar III
|-----------------------------------|---------------|
|-12b--12b--10-10-10-10-10-10-10-10-|-12b-12b-10~~--|
|-----------------------------------|---------------|
|-----------------------------------|---------------|
|-----------------------------------|---------------|
|-----------------------------------|---------------|

At let you guys figure the order that plays





Comments


Popular Rage Against The Machine tabs & chords
Ashes In The Fall  1 Bass Tabs
Bullet To The Head Bass Tabs
Bulls On Parade Drum Tabs
Bullet In The Head 5 Tabs
Fistful Of Steel 1 Tabs
Fistfull Of Steel 1 Tabs
Producer 2 Tabs
The Ghost Of Tom Joad 3 Tabs
Wind Below 2 Tabs
Born As Ghosts Ukulele


Song lyrics



↑ Back to top | Tablatures and chords are parodies/interpretations of the original songs. You may use it for private study, scholarship, research or language learning purposes only
© 2014 AZChords.com Contact us | Privacy policy | DMCA | Add/correct tabs | Request tabs | Top 50 tabs