» » »

Killin In The Name Tabs (ver.3)

Artists:  A B C D E F G H I J K L M N O P Q R S T U V W X Y Z # 

Killin In The Name Tabs (ver.3)

Rage Against The Machine
Rating:
0/5 (0 votes)

Tabs too difficult? Try these video lessons and learn fast.
                This one of the best solo's ever and there's no good tab for it on this site
so here it is Tom uses awhammy pedal set two octaves up and kill switch
(one pick-ups volume turned to 0)he quickely toggles it and hammers on to sound the 
note, and then pushes the whammy pedal back and forth
the song's in drop D but that doesn't matter for the solo

|-10-7----------7----------|
|------10-8----------------|
|-----------9-7------------| x2
|--------------------------|
|--------------------------|
|--------------------------|

|-5h8p5h8p5h8p5h8p5h8p5h8p5h8--|
|------------------------------|
|------------------------------| x2
|------------------------------|
|------------------------------|
|------------------------------|

|------------------------------|
|------------------------------|
|-5h7p5h7p5h7p5h7p5h7p5h7p5h7--| x2
|------------------------------|
|------------------------------|
|------------------------------|

|-----------------|
|-3s15-5s17-------|
|-----------1s13--|
|-----------------|
|-----------------|
|-----------------|

h=hammer on
p=pull off
s=slide
            
Tabs too difficult? Try these video lessons and learn fast.


comments powered by Disqus
↑ Back to top | Tablatures and chords are parodies/interpretations of the original songs. You may use it for private study, scholarship, research or language learning purposes only