>
 >
Kick Out The Jams 5

Kick Out The Jams 5 Bass Tabs

Rage Against The Machine - Kick Out The Jams 5 chords, tabs, tablatures, lyrics

Guitar lessons | Add/correct | Request | Top 50 tabs Artists:  A B C D E F G H I J K L M N O P Q R S T U V W X Y Z 0-9

Kick Out The Jams 5 Bass Tabs – Rage Against The Machine

CD, Sheet music, Poster

Do you like Kick Out The Jams 5? Share with your friends now
Bass TabsBass Tabs v2Bass Tabs v3Bass Tabs v4Bass Tabs v5TabsTabs v2Tabs v3
-------------------------------------------------------------------------------
			     KICK OUT THE JAMS - Rage Against The Machine
-------------------------------------------------------------------------------


Tuning: Standard

Intro

                       + + + + + + + + + + + +
G|----------------------------------------------------|
D|----------------------------------------------------|
A|---------------------------------------------/7\/5--|
E|--5-5-5-7------------1-1-1-1-1-1-1-1-1-1-1-1--------|

Verse Riff 1

G|------------------|
D|-----5-7-5h7-7-5--|
A|-7-7--------------|
E|------------------|

Verse Riff 2

G|--------------------------------|
D|-----5/12-12-12-----5/14-14-14--|
A|-7-7------------7-7-------------|
E|--------------------------------|

Chorus

G|--------------------------------------------------|
D|--------------------------------------------------|
A|------------------------5-5-5-5-5-5-5-5-7---------|
E|-5-5-5-7----14\-10--12-----------------------12\--|

Bridge (This is after the guitar solo, when the bass stops, the guitar continues to 
and the drum beat simplifies.)

      guitar and drums.........................
G|-------------------------------------------------------|
D|-------------------------------------------------------|
A|----------------------------------------------12\-/10--|
E|-------------------------------------------------------|

Outro*

G|-------------------------------------------------------------------------|
D|-------------------------------------------------------------------------|
A|------------------77777/1010101010\77777---------------------------------|
E|-0000000000000000-------------------------0000000000-/13131313-0000000000|

* The notes are correct here, but the amount of notes(0s and 13s) may be off.  It is 
that Tim improvises the outro.  In the live version he just plays open E rapidly.

| /  slide up
| \  slide down
| h  hammer-on
| p  pull-off
| ~  vibrato
| +  harmonic
| x  Mute note
===============================================================================





Comments


Popular Rage Against The Machine tabs & chords
Fuck Tha Police Bass Tabs
Housin Bass Tabs
Take The Power Back Bass Tabs
The Narrows Bass Tabs
Without A Face 2 Bass Tabs
Zapatas Blood 2 Bass Tabs
Pistol Grip Pump Chords
Ashes In The Fall  1 Tabs
Killin In The Name 2 Tabs
New Millennium Homes 1 Tabs


Song lyrics



↑ Back to top | Tablatures and chords are parodies/interpretations of the original songs. You may use it for private study, scholarship, research or language learning purposes only
© 2014 AZChords.com Contact us | Privacy policy | DMCA | Add/correct tabs | Request tabs | Top 50 tabs