» » »

Rage Against The Machine, Kick Out The Jams Tabs (ver.2)

Artists:  A B C D E F G H I J K L M N O P Q R S T U V W X Y Z # 

Kick Out The Jams Tabs (ver.2)

Rage Against The Machine Tabs
 Rating:
4/5 (4 votes)
Kick Out The Jams lessons Tabs too difficult? Try these video lessons and learn fast
1
                Drop D Tuning (DADGBE)

Intro
------

e|------------------|--x-x-x-x-x-x-x-x-x----------------------------------------|
B|------------------|--x-x-x-x-x-x-x-x-x----------------------------------------|
G|---2-2-2---4------|--x-x-x-x-x-x-x-x-x----------------------------------------|
D|---2-2-2---4------|-----------------------------------------------------------|
A|---0-0-0---2------|-----------------------------------------------------------|
D|------------------|----------------------2/14\2-------------------------------|

Main Riff/Verses
-----------------                                                                              

e|-----------------------|-------------x-x-x-x-x-x-x-x--------------------------|
B|-----------------------|-------------x-x-x-x-x-x-x-x--------------------------|
G|----------2--2-2-------|--2-2-2--4---x-x-x-x-x-x-x-x--------------------------|
D|--2-2--5--2--2-2-------|--2-2-2--4--------------------------------------------|
A|--2-2--5--0--0-0-------|--0-0-0--2--------------------------------------------|
D|--2-2--5---------------|------------------------------------------------------|
      

Chorus
-------                                                                        

e|-----------------x-x-x-x-x-x-x-x----------------------------------------------|
B|-----------------x-x-x-x-x-x-x-x----------------------------------------------|
G|-----0-----0-----x-x-x-x-x-x-x-x----------------------------------------------|
D|--2--0--2--0--0---------------------------------------------------------------|
A|--2-----2-----0---------------------------------------------------------------|
D|--2-----2-----0---------------------------------------------------------------|
                                                                              

Peace
-Tim
            
Submit corrections

comments powered by Disqus
↑ Back to top | Rage Against The Machine Tabs for Kick Out The Jams. Lyrics for acoustic guitar and electric guitar. 1 Tablatures and chords are parodies/interpretations of the original songs. You may use it for private study, scholarship, research or language learning purposes only