>
 >
I'm Housin'

I'm Housin' Guitar Tabs

Rage Against The Machine - I'm Housin' chords, tabs, tablatures, lyrics

Guitar lessons | Add/correct | Request | Top 50 tabs Artists:  A B C D E F G H I J K L M N O P Q R S T U V W X Y Z 0-9

I'm Housin' Guitar Tabs – Rage Against The Machine

CD, Sheet music, Poster

Do you like I'm Housin'? Share with your friends now
Tabs
EADGBE Tuning (Standard)

Verses
-------
This uses a wah pedal.  Press the toe down each chord.

e|------------------------------------------------------------------------------
B|------------------------------------------------------------------------------
G|--9---12---9--9--9---12-------------------------------------------------------
D|--x---x----x--x--x---x--------------------------------------------------------
A|--7---10---7--7--7---10-------------------------------------------------------
E|------------------------------------------------------------------------------
                                                                              

Breakdown
----------
"I'm Housin'.  Cause I'm Housin'..."

e|------------------------------------------------------------------------------
B|------------------------------------------------------------------------------
G|--9--9------------------------------------------------------------------------
D|--9--9------------------------------------------------------------------------
A|--7--7------------------------------------------------------------------------
E|--0--0------------------------------------------------------------------------
                                                                              

e|------------------------------------------------------------------------------
B|------------------------------------------------------------------------------
G|-9-----9-----9-----9-------12-------------------------------------------------
D|-9-----9-----9-----9-------12-------------------------------------------------
A|-7-----7-----7-----7-------10-------------------------------------------------
E|----0-----0-----0-----0-0-----------------------------------------------------
                                                                              

Chorus
-------
"Relate to the matter as I drop the bomb"

e|------------------------------------------------------------------------------
B|------------------------------------------------------------------------------
G|--9--9-------7---4---4--------------------------------------------------------
D|--9--9--7/9--7---4-0-4--5-----------------------------------------------------
A|--7--7--7/9--5---2-0-2--5-----------------------------------------------------
E|--------5/7-------------3--0--------------------------------------------------
                                                                              


Solo
-----
This uses wah too... for each of the 0799xx chords, press the toe then heel down.

e|------------------------------------------------------------------------------
B|------------------------------------------------------------------------------
G|--9---9----9---9----14b15r14-14-12-14-12----------12--------------------------
D|--9---9----9---9-------------------------14-12-14----14-12-14-----------------
A|--7---7----7---7--------------------------------------------------------------
E|--0---0----0---0--------------------------------------------------------------
                                                                              

e|------------------------------------------------------------------------------
B|--------------------17b19r17-17-15--17b19r17-17-15--17b20r17(b20r17)----------
G|--9---9----9---9--------------------------------------------------------------
D|--9---9----9---9--------------------------------------------------------------
A|--7---7----7---7--------------------------------------------------------------
E|--0---0----0---0--------------------------------------------------------------
                                                                              

Peace
-Tim





Comments


Popular Rage Against The Machine tabs & chords
Bombtrack 4 Bass Tabs
Born Of A Broken Man 1 Bass Tabs
Maria 2 Bass Tabs
Without A Face 2 Bass Tabs
Without A Face 2 Bass Tabs
Bombtrack 6 Tabs
Guerila Radio Tabs
In My Eyes 2 Tabs
Rage Against The Machine Zapata's Blood Tabs
Renegades Of Funk 2 Tabs


Song lyrics



↑ Back to top | Tablatures and chords are parodies/interpretations of the original songs. You may use it for private study, scholarship, research or language learning purposes only
© 2014 AZChords.com Contact us | Privacy policy | DMCA | Add/correct tabs | Request tabs | Top 50 tabs