» » »

Rage Against The Machine, Guerrila Radio Bass tabs (ver.1)

Artists:  A B C D E F G H I J K L M N O P Q R S T U V W X Y Z # 

Guerrila Radio Bass tabs (ver.1)

Rage Against The Machine Tabs
Rating:
0/5 (0 votes)
Guerrila Radio lessons Tabs too difficult? Try these video lessons and learn fast
                Chorus:
G-------------------
D-------------------
A---------------0-2-    X8
E-0-2-2-0-2-0-2-----

chorus outro
G-2-----------1--------
D-----4---2-----4------
A----------------------  X1
E-------------------0-1

Verse:
G-------------------------------
D-------77--99-----9------------slide out 
A--99--------------7------------               X 5 or 6
E-------------------------------

Same Order over and over, IF u Listen to the Song You Will Inderstand.
            
Submit corrections

comments powered by Disqus
↑ Back to top | Rage Against The Machine Bass for Guerrila Radio. Lyrics for acoustic guitar and electric guitar. Tablatures and chords are parodies/interpretations of the original songs. You may use it for private study, scholarship, research or language learning purposes only