» » »

Rage Against The Machine, D-generation X Tabs (ver.2)

Artists:  A B C D E F G H I J K L M N O P Q R S T U V W X Y Z # 

D-generation X Tabs (ver.2)

Rage Against The Machine Tabs
 Rating:
4/5 (4 votes)
D-generation X lessons Tabs too difficult? Try these video lessons and learn fast
                This is my first tab...

D Generation X

Intro/Verse

E------------------------------------------------------------|
B------------------------------------------------------------|
G------------------------------------------------------------|   X 3
D------------------------------------------------------------|
A-----------5---------55---7777-----------5---------223322---|
E-----000---------0-0-----------------000-------0-0----------|

Chorus

E------------------------------------------------------------|
B------------------------------------------------------------|
G------------------------------------------------------------|   X 2
D------------------------------------------------------------|
A--------7-5-7-------2-3-------------7-5-7-----------3-2-----|
E---0---------------------2-3-----0----------------------2---|

Riff

E-------------------------------------------------------------|
B-------------------------------------------------------------|
G-------------------------------------------------------------|    X 1
D-------------------------------------------------------------|
A-------------------------------------------------------------|
E------0-0----------------0-0-------------0-0----------0-0----|

Intro/Verse

E------------------------------------------------------------|
B------------------------------------------------------------|
G------------------------------------------------------------|   X 3
D------------------------------------------------------------|
A-----------5---------55---7777-----------5---------223322---|
E-----000---------0-0-----------------000-------0-0----------|

Chorus

E------------------------------------------------------------|
B------------------------------------------------------------|
G------------------------------------------------------------|   X 2
D------------------------------------------------------------|
A--------7-5-7-------2-3-------------7-5-7-----------3-2-----|
E---0---------------------2-3-----0----------------------2---|

Riff

E-------------------------------------------------------------|
B-------------------------------------------------------------|
G-------------------------------------------------------------|    X 1
D-------------------------------------------------------------|
A-------------------------------------------------------------|
E------0-0----------------0-0-------------0-0----------0-0----|

Intro/Verse

E------------------------------------------------------------|
B------------------------------------------------------------|
G------------------------------------------------------------|   X 3
D------------------------------------------------------------|
A-----------5---------55---7777-----------5---------223322---|
E-----000---------0-0-----------------000-------0-0----------|

Chorus

E------------------------------------------------------------|
B------------------------------------------------------------|
G------------------------------------------------------------|   X 2
D------------------------------------------------------------|
A--------7-5-7-------2-3-------------7-5-7-----------3-2-----|
E---0---------------------2-3-----0----------------------2---|

Riff

E-------------------------------------------------------------|
B-------------------------------------------------------------|
G-------------------------------------------------------------|    X 1
D-------------------------------------------------------------|
A-------------------------------------------------------------|
E------0-0----------------0-0-------------0-0----------0-0----|

Intro/Verse

E------------------------------------------------------------|
B------------------------------------------------------------|
G------------------------------------------------------------|   X 3
D------------------------------------------------------------|
A-----------5---------55---7777-----------5---------223322---|
E-----000---------0-0-----------------000-------0-0----------|

Chorus

E------------------------------------------------------------|
B------------------------------------------------------------|
G------------------------------------------------------------|   X 2
D------------------------------------------------------------|
A--------7-5-7-------2-3-------------7-5-7-----------3-2-----|
E---0---------------------2-3-----0----------------------2---|

Lyrics:

Are you ready
Yeah, you think you can tell us what to do?
You think you can tell us what to wear?
You think that your better?
Well you better get ready
To bow to the masters
Break it down!

D Genration ain't stupid, fool
We just got tired 
Of doin' what you tell me to do
That's a brace boy
Yeah
That's a brace little man
Break it down!

D Generation X!
D Generation

You think you can tell me what to do?
You know who your talkin' to?
Well, you better get used 
To the way we do it
I say what you got
It measures an ounce
Thats a brace boy, yeah
Thats a brace little man
Break it down!

D Generation X
D generation

You think your a big man?
Hahahahaha
I'll treat you like a little man
Yo, tell me what it's like
To be half a man
It must break your heart
To see what I am but
Thats a brace boy, yeah
Thats a brace little man
Break it down!

D Generation X
D Generation!

You think you can tell me what to do?
----------------------------------------------------------------------------

If you don't like my tab then iv'e got 2 words for you, SUCK IT!
            
Submit corrections

comments powered by Disqus
↑ Back to top | Rage Against The Machine Tabs for D-Generation X. Lyrics for acoustic guitar and electric guitar. Tablatures and chords are parodies/interpretations of the original songs. You may use it for private study, scholarship, research or language learning purposes only