» » »

Darkness Tabs (ver.2)

Artists:  A B C D E F G H I J K L M N O P Q R S T U V W X Y Z # 

Darkness Tabs (ver.2)

Rage Against The Machine
Rating:
0/5 (0 votes)

Hard to play? Try these video lessons and learn fast.
                
Legend:  p - pull off
         h - hammer on
         ^ - bend note
    / or \ - slide
        - artificial (pinch) harmonic
         ~ - whammy bar dip


***Alternate Tuning - Drop D (tune your low E string down to a D)


Intro/Verse
   Clean, neck pickup, tone knob rolled off a bit
e-|-----------0----------------------0------------------|
B-|*-------12----12----------------7----7--------------*|
G-|-----11-----------11~---------6---------6~-----------|
D-|--12------------------------7------------------------|
A-|*---------------------------------------------------*|
D-|-----------------------------------------------------|


Chorus - Distortion                           4th ending   
e-|---------------------------------------|  |----0-0-0-0-0----|
B-|*-------------------------------------*|  |----5-5-5-5-5----|
G-|---------------------------------------|  |-----------------|
D-|---------------------------------------|  |-----------------|
A-|*-0--2----3--2-----0/12--12\0---------*|  |-----------------|
D-|--0--2----3--2-----0/12--12\0----------|  |-----------------|


Solo - neck pickup
e-|-----14-15-14-------------------------14-15-14--15-14------------------|
B-|--12----------15-14-15-14-15-14----12-----------------15-14-15-17-17^--|
G-|-----------------------------------------------------------------------|
D-|-----------------------------------------------------------------------|
A-|-----------------------------------------------------------------------|
D-|-----------------------------------------------------------------------|
   pre-bend
e-|-^17--17-15-14-15-17-15-14------------------------------------14-15-17-|
B-|---------------------------17-15-14------------------14-15-17----------|
G-|------------------------------------16-15-14---14-16-------------------|
D-|-----------------------------------------------------------------------|
A-|-----------------------------------------------------------------------|
D-|-----------------------------------------------------------------------|

e-|-17^19\-------15-17-16-15----------16-15-14----------15-14-13-14-15-13-|
B-|--------------------------17-16-15----------16-15-14-------------------|
G-|----------/14----------------------------------------------------------|
D-|-----------------------------------------------------------------------|
A-|-----------------------------------------------------------------------|
D-|-----------------------------------------------------------------------|
                                                                  pre-bend
e-|------------------------------------15\------14---17---17---17---19^17-|
B-|-15-14-13------------------12-13-14------------------------------------|
G-|----------14-13-12---12-14---------------/14---------------------------|
D-|-----------------------------------------------------------------------|
A-|-----------------------------------------------------------------------|
D-|-----------------------------------------------------------------------|

e-|-17---15--17---19^17---17---15--17\------------------------------------|
B-|-------------------------------------------15-15-15------15-15-15------|
G-|-----------------------------------------------------------------------|
D-|--------------------------------------/12------------12------------12--|
A-|-----------------------------------------------------------------------|
D-|-----------------------------------------------------------------------|

e-|-----------------------------------------------------------------------|
B-|-15-15-15--15-15-15-\----------------------------------------------|
G-|-----------------------------------------------------------------------|
D-|-----------------------------------------------------------------------|
A-|-----------------------------------------------------------------------|
D-|-----------------------------------------------------------------------|


Song Structure:
Intro   3x
Chorus  8x
Intro   3x
Chorus  12x
Some crazy sh*t that you can't play
Solo
Chorus  12x
Intro   2x

*This is all my own work
            
Hard to play? Try these video lessons and learn fast. | Correct




comments powered by Disqus
↑ Back to top | Tablatures and chords are parodies/interpretations of the original songs. You may use it for private study, scholarship, research or language learning purposes only