» » »

Rage Against The Machine, Bullet In Your Head Tabs (ver.3)

Artists:  A B C D E F G H I J K L M N O P Q R S T U V W X Y Z # 

Bullet In Your Head Tabs (ver.3)

Rage Against The Machine Tabs
 Rating:
4/5 (4 votes)
Bullet In Your Head lessons Tabs too difficult? Try these video lessons and learn fast
                
This is the live version as heard on the self-titled video.
Tom pretty much used this solo (with a few variations) for the whole ’96 Evil Empire tour.

Step one - Turn on the wah, unplug the lead and tap against the metal parts on your guitar while rocking the wah.

The timing isn’t perfect. 
Step Two - The normal playing starts here

w/Wah on full treble
|-------------------------------------------------------|
|--12---12---9--------12--12---10--------10----10----9--|
|---9----9---9---------9---9----9---------9-----9----9--|
|-------------------------------------------------------|
|-------------------------------------------------------|
|-------------------------------------------------------|

Rock wah now
|----------------|
|--10------7--9--|
|--11------7--9--|
|----------------|
|----------------|
|----------------|

Then play this faster bit, which is based on the Dorian scale..
Wah off
Tom drops out of beat a bit on this lick, so it may be easier to just skip a note.

|--Full---full------------14-------------17-15-14------------|
|--15b----15b----14-15-17-----17-15-14-------------17-15-14--|
|------------------------------------------------------------|
|------------------------------------------------------------|
|------------------------------------------------------------|
|------------------------------------------------------------|

|---------------------------------------------------|
|-------14------------------------------------------|
|--16------16--14--13------13--14--16b(18-)-r-(16)--|
|----------------------14---------------------------|
|---------------------------------------------------|
|---------------------------------------------------|

|--/14--15—14v--------/22~----/22~----/22~--|
|-------------------------------------------|
|-------------------------------------------|
|-------------------------------------------|
|-------------------------------------------|
|-------------------------------------------|
~ = Tremelo pick.
            
Submit corrections

comments powered by Disqus
↑ Back to top | Rage Against The Machine Tabs for Bullet In Your Head. Lyrics for acoustic guitar and electric guitar. Tablatures and chords are parodies/interpretations of the original songs. You may use it for private study, scholarship, research or language learning purposes only