>
 >
Born Of A Broken Man 5

Born Of A Broken Man 5 Guitar Tabs

Rage Against The Machine - Born Of A Broken Man 5 chords, tabs, tablatures, lyrics

Guitar lessons | Add/correct | Request | Top 50 tabs Artists:  A B C D E F G H I J K L M N O P Q R S T U V W X Y Z 0-9

Born Of A Broken Man 5 Guitar Tabs – Rage Against The Machine

CD, Sheet music, Poster

Do you like Born Of A Broken Man 5? Share with your friends now
Bass TabsBass Tabs v2TabsTabs v2Tabs v3Tabs v4Tabs v5Tabs v6Tabs v7
 11/09/99 

 S1: I watched woodstock and Rage played this song called Broken Man, I
 listened over and over and i got it figured out. It's good. Drop D
 tuning, by the way. Also the verse part is all sliding back and forth,
 Verse... 

 |-----------------------------------------------------------------------------------------------------------------------------------------------------|
 |-----------------------------------------------------------------------------------------------------------------------------------------------------|
 |-14--14--14-14-14-14--14---14---13---13---13---16---16-16-16-16---12--12--12--12--12-12-12--16-14--|
 |-x----x-----x----x---x---x----x------x-----x-----x------x------x------x---x---x----x-----x---x------x----x----x----x---x----x----x--|
 |-12--12--12-12-12-12--12---12---11---11---11---14---14-14-14-14---10--10--10--10--10-10-10--14-12--|
 |-0-----0-----0---0---0--0----0-----0-----0-----0-----0-----0------0---0--0--0-------0----0---0----0----0---0----0------------|


 Play that twice... 

 Then the first chorus... 
 |-----------------------------------------------------------------------------------------------------------------------------------------------------|
 |-----------------------------------------------------------------------------------------------------------------------------------------------------|
 |-----------------------------------------------------------------------------------------------------------------------------------------------------|
 |------5b--3-----7---------3---x-x-x---3-----7-------3-------------(2x)-----------------------------------------------------------|
 |----------3-----7---------3-x-x-x-x---3-----7-------3-----------------------------------------------------------------------------|
 |--0-------3--0--7-0--0--3-0-x-x-x-x---3--0--7-0--0--3--0-------------------------------------------------------------------------|


 Then... 
 |-----------------------------------------------------------------------------------------------------------------------------------------------------|
 |-----------------------------------------------------------------------------------------------------------------------------------------------------|
 |-----------------------------------------------------------------------------------------------------------------------------------------------------|
 |------5b--3------7---------3-----x-x-x-x---3--------------5555555 slow bend---------------------------------------------------| 
 |------------3------7---------3-----x-x-x-x---3------------------------------------------------------------------------------------------------|
 |--0--------3--0--7-0--0--3--0-x-x-x-x---3--0----0--------------------------------------------------------------------------------------|


 |-----------------------------------------------------------------------------------------------------------------------------------------------------|
 |-----------------------------------------------------------------------------------------------------------------------------------------------------|
 |-----------------------------------------------------------------------------------------------------------------------------------------------------|
 |------5--3-----7---------3-x-x-x-x---3------7---------3-----------------------------------------------------------------------------|
 |---------3-----7---------3-x-x-x-x---3------7---------3-----------------------------------------------------------------------------|
 |--0------3--0--7-0--0-3--0-x-x-x-x---3--0---7-0--0-3--0-------------------------------------------------------------------------|


 |-----------------------------------------------------------------------------------------------------------------------------------------------------|
 |-----------------------------------------------------------------------------------------------------------------------------------------------------|
 |-14--14--14-14-14-14--14---14---13---13---13---16---16-16-16-16---12--12--12--12--12-12-12--16-14--|
 |-x----x-----x----x---x---x----x------x-----x-----x------x------x------x---x---x----x-----x---x------x----x----x----x---x----x----x--|
 |-12--12--12-12-12-12--12---12---11---11---11---14---14-14-14-14---10--10--10--10--10-10-10--14-12--|
 |-0-----0-----0---0---0--0----0-----0-----0-----0-----0-----0------0---0--0--0-------0----0---0----0----0---0----0------------|


 Play that 3 times... then hit the chorus again... 

 After the chorus ad this... 

 |-----------------------------------------------------------------------------------------------------------------------------------------------------|
 |-----------------------------------------------------------------------------------------------------------------------------------------------------|
 |------------------------------5-----5--5---7-7-7--------------------(3x)---------------------------------------------------------------------|
 |------------------------------------------------------------------------------------------5b--3------7---------3------0------------------------|
 |------------------------------------------------------------------------------------------------3------7---------3------0------------------------|
 |-0-0-0-0-0-0-0-0---------------------------------------------------------------0-------3--0--7-0--0--3--0--0------------------------|


 |-----------------------------------------------------------------------------------------------------------------------------------------------------|
 |-----------------------------------------------------------------------------------------------------------------------------------------------------|
 |-14--14--14-14-14-14--14---14---13---13---13---16---16-16-16-16---12--12--12--12--12-12-12--16-14--|
 |-x----x-----x----x---x---x----x------x-----x-----x------x------x------x---x---x----x-----x---x------x----x----x----x---x----x----x--|
 |-12--12--12-12-12-12--12---12---11---11---11---14---14-14-14-14---10--10--10--10--10-10-10--14-12--|
 |-0-----0-----0---0---0--0----0-----0-----0-----0-----0-----0------0---0--0--0-------0----0---0----0----0---0----0------------|

 Play twice once again... 

 Bridge... 
 Play with some kind of effect... 
 |-----------------------------------------------------------------------------------------------------------------------------------------------------|
 |-----------------------------------------------------------------------------------------------------------------------------------------------------|
 |-----------------------------------------------------------------------------------------------------------------------------------------------------|
 |------5b----------------------x-x-x-x-------------------------------------------------------(2x)---------------------------------------|
 |------------------------------x-x-x-x-----------------------------------------------------------------------------------------------------|
 |--0--------3--0--7-0--0--3--0-x-x-x-x---3--0--7-0--0--3--0-------------------------------------------------------------------------|


 |-----------------------------------------------------------------------------------------------------------------------------------------------------|
 |-----------------------------------------------------------------------------------------------------------------------------------------------------|
 |-----------------------------------------------------------------------------------------------------------------------------------------------------|
 |------5b--3------7---------3-x-x-x-x---3------7---------3-------------(2x)-----------------------------------------------------------|
 |----------3------7---------3-x-x-x-x---3------7---------3-----------------------------------------------------------------------------|
 |--0-------3--0--7-0--0--3--0-x-x-x-x---3--0--7-0--0--3--0-------------------------------------------------------------------------|


 Then... 
 |-----------------------------------------------------------------------------------------------------------------------------------------------------|
 |-----------------------------------------------------------------------------------------------------------------------------------------------------|
 |-----------------------------------------------------------------------------------------------------------------------------------------------------|
 |------5b--3-----7---------3-x-x-x-x---3--------------5555555 slow bend---------------------------------------------------| 
 |----------3-----7---------3-x-x-x-x---3------------------------------------------------------------------------------------------------|
 |--0-------3--0--7-0--0-3--0-x-x-x-x---3--0----0--------------------------------------------------------------------------------------|


 |-----------------------------------------------------------------------------------------------------------------------------------------------------|
 |-----------------------------------------------------------------------------------------------------------------------------------------------------|
 |-----------------------------------------------------------------------------------------------------------------------------------------------------|
 |------5b--3-----7---------3-x-x-x-x---3-----7-------3-----------------------------------------------------------------------------|
 |----------3-----7---------3-x-x-x-x---3-----7-------3-----------------------------------------------------------------------------|
 |--0-------3--0--7-0--0--3-0-x-x-x-x---3--0--7-0--0--3--0-------------------------------------------------------------------------|


 After the chorus ad this 2 times, and you're finished 

 |-----------------------------------------------------------------------------------------------------------------------------------------------------|
 |-----------------------------------------------------------------------------------------------------------------------------------------------------|
 |------------------------------5-----5--5---7-7-7--------------------(3x)---------------------------------------------------------------------|
 |------------------------------------------------------------------------------------------5b--3------7---------3------0------------------------|
 |------------------------------------------------------------------------------------------------3------7---------3------0------------------------|
 |-0-0-0-0-0-0-0-0--------------------------------------------------------------0-------3--0--7-0--0--3--0--0------------------------|


 It's a pretty simply song, you just have to hear it. Any questions email





Comments


Popular Rage Against The Machine tabs & chords
Fistful Of Steel 3 Bass Tabs
Snakecharmer Bass Tabs
Wake Up 3 Bass Tabs
Zapatas Blood Bass Tabs
Ashes In The Fall  1 Tabs
Bombtrack 8 Tabs
Born Of A Broken Man Tabs
Darkness 2 Tabs
Killing In The Name 2 Tabs
Take The Powwer Back Tabs


Song lyrics



↑ Back to top | Tablatures and chords are parodies/interpretations of the original songs. You may use it for private study, scholarship, research or language learning purposes only
© 2014 AZChords.com Contact us | Privacy policy | DMCA | Add/correct tabs | Request tabs | Top 50 tabs