» » »

Born Of A Broken Man Bass tabs (ver.2)

Artists:  A B C D E F G H I J K L M N O P Q R S T U V W X Y Z # 

Born Of A Broken Man Bass tabs (ver.2)

Rage Against The Machine
Rating:
3/5 (2 votes)

Hard to play? Try these video lessons and learn fast.
                -------------------------------------------------------------------------------
			     BORN OF A BROKEN MAN - Rage Against the Machine
-------------------------------------------------------------------------------


Tuning:Drop D

chorus:
G|---1p0------------x-x-x-x------------|
D|------------------x-x-x-x------------|x4
A|------------------x-x-x-x------------|
D|-0-----3-0-70-3-0-x-x-x-x-3-0-70-3-0-|

verse: just wait 4 measures
G|-----------------|
D|-----------------|x4
A|-----------------|
D|-----------------|

break:            guitar
G|---------------(5--5h7)-|
D|------------------------|x3
A|------------------------|
D|-0-0-0-0-0-0-0----------|

G|---1p0------------|
D|------------------|
A|------------------|
D|-0-----3-0-70-3-0-|

wait 4 measures while guitar plays

pre-chorus: 
G|-----------------|
D|-----------------|x4
A|-5-5-5-5-5-5-5-5-|
D|-----------------|

chorus
verse
chorus
verse x2
chorus
break
pre-chorus
chorus
break x2 (2nd time slows down)

| /  slide up
| \  slide down
| h  hammer-on
| p  pull-off
| ~  vibrato
| +  harmonic
| x  Mute note
===============================================================================
            
Hard to play? Try these video lessons and learn fast. | Correct




comments powered by Disqus
↑ Back to top | Tablatures and chords are parodies/interpretations of the original songs. You may use it for private study, scholarship, research or language learning purposes only