» » »

Ashes In The Fall Bass tabs (ver.3)

Artists:  A B C D E F G H I J K L M N O P Q R S T U V W X Y Z # 

Ashes In The Fall Bass tabs (ver.3)

Rage Against The Machine
Rating:
0/5 (0 votes)

Hard to play? Try these video lessons and learn fast.
                -----------------------------------------------------------------------------
	     Rage Against The Machine - Ashes In The Fall
-----------------------------------------------------------------------------


Tuning: Drop D

Intro:

G-|-----------------|---------------5-|-7-----5-7-----5-|-7-----5-7-----5-|
D-|*---------------*|-----------------|*----------------|----------------*|
A-|*-----REST------*|-----------------|*--5-x-----5-x---|---5-x-----5-x--*|
D-|-----------------|-----------------|-----------------|-----------------|

Verse:

G-|-7-----5-7-----5-|-7-----5-7-----5-|-7-----5-7-----5-|-7-----5-7-----5-|
D-|*----------------|-----------------|-----------------|----------------*|
A-|*--5-x-----5-x---|---5-x-----5-x---|---5-x-----5-x---|---5-x-----5-x--*|
D-|-----------------|-----------------|-----------------|-----------------|

Chorus:

G-|-----------------|-----------------|-----------------|-----------------|
D-|-----------------|-----------------|-----------------|-----------------|
A-|------REST-------|------REST-------|------REST-------|------REST-------|
D-|-----------------|-----------------|-----------------|-----------------|

G-|-----------------|-----------------|-----------------|---------------5-|
D-|-----------------|-----------------|-----------------|-----------------|
A-|--3----3---3-3---|-3-3---3-3-3-3-3-|--3----3---3-3---|-3-3---3-3-3-3---|
D-|-----------------|-----------------|-----------------|-----------------|

- Pre-Verse (Just The Same As Verse)

- Verse

2nd Chorus:

G-|-----------------|-----------------|-----------------|-----------------|
D-|*----------------|----------------*|*----------------|----------------*|
A-|*-----REST-------|------REST------*|*-3----3---3-3---|-3-3---3-3-3-3-3*|
D-|-----------------|-----------------|-----------------|-----------------|

1st Interlude:

G-|-7-----5-7-----5-|-7-----5-7-----5-|-7-----5-7-----5-|-7-----5-7-----5-|
D-|*----------------|-----------------|-----------------|----------------*|
A-|*--5-x-----5-x---|---5-x-----5-x---|---5-x-----5-x---|---5-x-----5-x--*|
D-|-----------------|-----------------|-----------------|-----------------|

G-|-----------------|-----------------|-----------------|-----------------|
D-|*----------------|-----------------|-----------------|----------------*|
A-|*5---x-3-5---x-3-|-5---x-3-5---x-3-|-5---x-3-5---x-3-|-5---x-3-5---x-3*|
D-|---0-------0-----|---0-------0-----|---0-------0-----|---0-------0-----|

- 3rd Chorus (Same As 2nd Chorus)

2nd Interlude:

(Use Delay Pedal Effect)

G-|-----------------|-----------------|-----------------|-----------------|
D-|-----------------|-----------------|*----------------|----------------*|
A-|--5--------------|-5---------------|*-5--------------|-5--------------*|
D-|-----------------|-----------------|-----------------|-----------------|

Outro (Fade Out) :
                     
G-|-----------------|-----------------|-----------------|-----------------|
D-|*----------------|----------------*|-----------------|-----------------|
A-|*-5--------------|-5--------------*|-5---------------|-------REST------|
D-|-----------------|-----------------|-----------------|-----------------|
            
Hard to play? Try these video lessons and learn fast. | Correct




comments powered by Disqus
↑ Back to top | Tablatures and chords are parodies/interpretations of the original songs. You may use it for private study, scholarship, research or language learning purposes only