» » »

The Trickster Bass tabs (ver.1)

Artists:  A B C D E F G H I J K L M N O P Q R S T U V W X Y Z # 

The Trickster Bass tabs (ver.1)

Radiohead
Rating:
0/5 (0 votes)

Hard to play? Try these video lessons and learn fast.
                (1)
 
This is my favorite radiohead song to play by a lot.  It's mostly
correct, not sure about the end to the coda.
 
Intro/Verse                                           
A|----------------|----------------|----------------|6-6-6--5-5------|
E|3-3-3--3-3-/6-6-|2-2-2--2-2-/6-6-|1-1-1--1-1-/6-6-|------------6-5-|
 
Intro Second ending              Verse Second Ending (into prechorus)
D|-------4-4--4-4-|                                  
A|6-6-6-----------|              A|6-6-6---5-------|
E|----------------|              E|----------6-5-3-|
 
Pre-chorus
A|6---------------|------|6---------------|----------------|----------------|
E|--------5-------|3-----|--------5-------|3-3-3-3-3-3-3-3-|3-3-3-3-3-3-3-3-|
 
Chorus 
G|-----2-3-2----2-|------------2---|-------2-3-2----|----------------|
D|5---5------5---5|4------4--4--54-|3---35--------5-|----------------|
A|----------------|---5-5---5-5---5|----------------|6-6-6--5-3------|
E|(3)-------------|----------------|----------------|------------6-5-|
 
Interlude  [condensed time]
D|-----------------------------/10|   (that's the tenth fret)
A|--------------------------------|
E|6---7---8---7---6---7---8---8---|   
 
Coda
G|--------|--------|--------|------4-|--------|--------|--------|------------|
A|--------|--------|--------|6---65-5|--------|--------|--------|6---5-------|
E|3-------|2-------|1-------|--------|3-------|2-------|1-------|------6-5-3-|
  D 
 

       Structure:
Intro (x2)   [2nd time with intro ending]
Verse (x2)   [2nd time with verse ending]
Prechorus
Chorus
Verse (x2)   [2nd time with verse ending]
Prechorus
Chorus
Interlude    
Coda
Pre-chorus
Chorus  (x2)
Outro   (x2)  
 
Note the outro is the root notes of the verse banged away an octave higher.
            
Hard to play? Try these video lessons and learn fast. | Correct




comments powered by Disqus
↑ Back to top | Tablatures and chords are parodies/interpretations of the original songs. You may use it for private study, scholarship, research or language learning purposes only