» » »

Radiohead, The Trickster Tabs (ver.1)

Artists:  A B C D E F G H I J K L M N O P Q R S T U V W X Y Z # 

The Trickster Tabs (ver.1)

Radiohead Tabs
 Rating:
4/5 (4 votes)
The Trickster lessons Tabs too difficult? Try these video lessons and learn fast
1
                I find this to be more accurate and easier than the two versions that have
been posted. 
  
  Note: up pick on the G and B strings


  Verse & intro (Gtr.1)
    Riff 1
 
  e:
  B:------3-3-3--3-3-3---3------3-3-3--3-3-3---3------3-3-3--3-3-3---3
  G:------3-2-0--2-3-2---0------3-2-0--2-3-2---0------3-2-0--2-3-2---0
D:-------------------------------------------------------------------------
A:------------------------------------------------------------------------
  E:--3-3---------------3----2-2----------------2----1-1---------------1--


  e:--------------1 |
  B:-------4---4---4-3 |
  G:-------3---3---3-2 |
  D:--1-1---1---------|
  A:-------------------|
  E:--------------------|

 
  The chorus is more convienient played:

 
  e:-----------------------------3-----------------------------1 |
  B:--3-1--1-3-1--1--1-3-1-3-1-3-1--3-1-1-3-1--------4-4--4-3 |
  G:------3-------3-------3----------------3------3------3-3--3-2 |
  D:--------------------------------------------------1-1---------- |
  A:--------------------------------------------------------------- |
  E:--------------------------------------------------------------- |


    Guitar Archive at Planet Telex
---------------------------------------
            
Submit corrections

comments powered by Disqus
↑ Back to top | Radiohead Tabs for The Trickster. Lyrics for acoustic guitar and electric guitar. 1 Tablatures and chords are parodies/interpretations of the original songs. You may use it for private study, scholarship, research or language learning purposes only