» » »

Radiohead, There There Tabs (ver.4)

Artists:  A B C D E F G H I J K L M N O P Q R S T U V W X Y Z # 

There There Tabs (ver.4)

Radiohead Tabs
 Rating:
4/5 (4 votes)
There There lessons Tabs too difficult? Try these video lessons and learn fast
                (Complete)
tuning:standard(ebgdaE)

                          lead guitars(Jon greenwood and other guy)
 at the points "landscape..." and 
"I sleep.." the lead plays this riff(RIFF1)
   Bm8    A8   G5/D5
e-----0----------
b------3---------
g--4-4--4-2-2--(2)
d--x-x----x-x---0     Jon Greenwood
a--2-2----0-0---x
e-------------0-3

Chorus
   A                F#m
e------------------------------
b-222----2-2-22----------------
g-222-2--2-2-22-2206x6-6-77-6--    Jon Greenwood
d-222-x--2-2-22-220xxx-x-xx-x-2  then 
a-000-0--0-0-00-00-4x4-4-55-4-0 RIFF1
e------------------------------
 play that plus RIFF 1 twice for the choruses.

solo 1(before why so green)
e---------------------------------------
b--------------------------------------
g--------------------------------------
d------7--7--7--7-6-7(/)--10--10--10---Jon Greenwood
a------9--9--9--9-9-9(/)--12--12--12---
e--0-7--7---7--7--7-7-/ 10--10--10---10

e---------------------------------------
g---------------------------------------
b---------------------------------------
d-10--9-10-----5-45-7777-5--------------Jon Greenwood
a-12-12-12-----7-77-7777-7---75757-7/9-7
e-10-10-10-12\5--55-5555-5-0~-----------

e-----------------------------
g-----------------------------
d-----------------------------Jon Greenwood
b-----------5--5--55/7-5------
a----7--7----7--7--------7-5--
e-0-7--5--0~-----------------5 as soon as the 
bottom e is played thom quietly hacks away at this chord
eagdbe
0700x7


bridge -"why so green..."
   Bm
e|-----7--------7--------7--------7---
B|------------------------------------
G|---7---7----7---7----7---7----7---7-other guy
D|------------------------------------
A|------------------------------------
E|-7--------7--------7--------7-------
  
   Dm		                Am
e|-----7-------7--------7--------7---------
B|-------6--------5-----------------0------
G|--------------------5---5----5-----------
D|---7-------7------7--------7-------------other guy
A|-5-------5-------------------------------
E|-----------------------------------------

   Em
e|------7---------7---------7--------------
B|----0---0-----0---0-----0---0------------
G|-----------------------------------------other guy
D|-----------------------------------------
A|-7--------7----------7---------7---------
E|-----------------------------------------



the solo-this is actually played by a second 
lead guitarist.
e--------------------------------- 
b--------------------------------- 
g---------------------------------jon
d---------------------2b44444r2-0- 
a-02--2-02--2-02-2-02------------- 
e--------------------------------- 
                   (some weird effect here)
e------------------------------------------
b---------------------------8~-10~-6b8r7b8-
g------------------------------------------
d-2b4444-20------210-----------------------jon
a-----------3-0------320-------------------
e------------------------32----------------

e------------------------------
b--8b10r9b10~-6b8-8b10-6b8-8b10
g------------------------------
d------------------------------jon
a------------------------------
e------------------------------
                 

                            rhythym(Thom Yorke)
     intro
e|--------------------0-2-----
B|-----------0-------------0--
G|-------2-------2---2--------
D|---0------------------------
A|-2---2---2-------2-----2----
E|----------------------------
				
e|--------------------2-0-----0-2----2---------2-0-0-2---------2-0-0-2-|
B|-----------0------------0--------0----0----------------0-------------|
G|-------2-------2--2-------2-------------2---2------------2---2-------|
D|---0-----------------------------------------------------------------|
A|-2---2---2-------2-------------2----2-----2----------2-----2---------|
E|---------------------------------------------------------------------|
       


Verse:
E7sus4
in pitch dark
                                Bm  A G Bm A G
i go walking on your landscape 
E7sus4            
Broken Branches
                   Bm  A G Bm A G
trip me as i sleep 

Chorus:
A               F#minor
just cause you feel it 
	          Bm  A G Bm A G
doesn't mean it's there 
A               F#minor
just cause you feel it 
	           Bm  A G Bm A G
doesn't mean it's there 

Verse 2:
E7sus4
theres always a siren 
	            Bm  A G Bm A G   Bm  A G Bm A G
singing you to shipwreak (dont reach out)(dont reach out)
E7sus4
stay away from these rocks 
	               Bm  A G Bm A G  Bm  A G Bm A G
would be a walking disaster (dont reach out)(dont reach out)

Chorus:
A                     F#minor
just cause you feel it 

doesn't mean it's there 
A                     F#minor
just cause you feel it 

doesn't mean it's there 
There There!

            bridge
Chords:
Bm - 700707
Dm - 057067
Am - 007507
Em - 070007

Rhythm Guitar plays:
(Bm) 4 beats, (Dm) 2 beats, (Am) 2 beats, (Em) 3 beats

Bm   
why so green? and 
Dm
lonely 
Am
lonely 
Em
lonely 

Bm   
heaven sent you
Dm
to me
Am
to me
Em
to me 

Bm
we are accidents 
Dm
waiting 
Am
waiting
Em
to happen 

Bm
we are accidents 
Dm
waiting 
Am
waiting
Em
to happen 


   the rythym section and the lead to the bridge i cannot
take any credit for, but I have made a complete tab.
now for additional notes,

Thom Yorke- for the intro and verses a cleanish,
but slightly murky sound. switch bass high and treble
moderately high, with slight gain and high reverb. for bridge
a reedy sound with no distortion, lots of trble, low on volume 
and bass but moderately high reverb and tweak.

jon greenwood- a very dirty sound with lots of tone, treble and 
bass, no reverb or tweak, with lots of gain. Then some hella weird
effect that sounds like screaming.

other guy-very clean sound, high reverb and tweak, moderate
bass and treble then low gain.
            
Submit corrections

comments powered by Disqus
↑ Back to top | Radiohead Tabs for There There. Lyrics for acoustic guitar and electric guitar. Tablatures and chords are parodies/interpretations of the original songs. You may use it for private study, scholarship, research or language learning purposes only