» » »

There There Tabs (ver.3)

Artists:  A B C D E F G H I J K L M N O P Q R S T U V W X Y Z # 

There There Tabs (ver.3)

Radiohead
Rating:
0/5 (0 votes)

Tabs too difficult? Try these video lessons and learn fast.
                Tuning: EADGBe

Chords:
E7sus4 - 020200
G - 320030
F# - 200030
Em - 022000
A - 002220
F#m - 244222

Bass Intro:
e|---------------------------
B|---------------------------
G|---------------------------
D|---------------------------
A|-0--2---0--2---0--2---0--2-
E|---------------------------

Guitar Intro:
e|--------------------0-2-----
B|-----------0-------------0--
G|-------2-------2---2--------
D|---0------------------------
A|-2---2---2-------2-----2----
E|----------------------------
				
e|--------------------2-0-----0-2----2---------2-0-0-2---------2-0-0-2-|
B|-----------0------------0--------0----0----------------0-------------|
G|-------2-------2--2-------2-------------2---2------------2---2-------|
D|---0-----------------------------------------------------------------|
A|-2---2---2-------2-------------2----2-----2----------2-----2---------|
E|---------------------------------------------------------------------|

Verse:
E7sus4
in pitch dark
																														G F# Em G F# Em
i go walking on your landscape 
E7sus4
Broken Branches 
																		G F# Em G F# Em
trip me as i sleep 

Chorus:
A                     F#minor
just cause you feel it 
		  																				G F# Em G F# Em
doesn't mean it's there 
A                     F#minor
just cause you feel it 
		  																				G F# Em G F# Em
doesn't mean it's there 

Verse 2:
E7sus4
theres always a siren 
																										G     F#    Em  G    F#    Em
singing you to shipwreak (dont reach out)(dont reach out)
E7sus4
stay away from these rocks 
																										   G     F#    Em  G    F#    Em
would be a walking disaster (dont reach out)(dont reach out)

Chorus:
A                     F#minor
just cause you feel it 
		  																				G F# Em G F# Em
doesn't mean it's there 
A                     F#minor
just cause you feel it 
		  																				G F# Em G F# Em
doesn't mean it's there 
There There!


Chords:
Bm - 700707
Dm - 057067
Am - 007507
Em - 070007

Rhythm Guitar plays:
(Bm) 4 beats, (Dm) 2 beats, (Am) 2 beats, (Em) 3 beats

Lead Guitar plays:
   Bm
e|-----7--------7--------7--------7---
B|------------------------------------
G|---7---7----7---7----7---7----7---7-
D|------------------------------------
A|------------------------------------
E|-7--------7--------7--------7-------
  
   Dm		                Am
e|-----7-------7--------7--------7---------
B|-------6--------5-----------------0------
G|--------------------5---5----5-----------
D|---7-------7------7--------7-------------
A|-5-------5-------------------------------
E|-----------------------------------------

   Em
e|------7---------7---------7--------------
B|----0---0-----0---0-----0---0------------
G|-----------------------------------------
D|-----------------------------------------
A|-7--------7----------7---------7---------
E|-----------------------------------------

Solo:
e|--------------------------------------------
B|--------------------------------------------
G|--------------------------------------------
D|-4-4-4-4-6h7-7--4-4-4-4-3p2--4-4-4-4-4-4-4--
A|--------------------------------------------
E|--------------------------------------------

e|-------------------------------
B|-------------------------------
G|-------------------------------
D|-7-7-7-7-7-7-5--5-5-7-7-5-2-0--
A|-------------------------------
E|-------------------------------

Bm   
why so green? and 
Dm
lonely 
Am
lonely 
Em
lonely 

Bm   
heaven sent you
Dm
to me
Am
to me
Em
to me 

Bm
we are accidents 
Dm
waiting 
Am
waiting
Em
to happen 

Bm
we are accidents 
Dm
waiting 
Am
waiting
Em
to happen 

Thats all you need to know for this song. HAIL TO THE THIEF is coming!
            
Tabs too difficult? Try these video lessons and learn fast.




comments powered by Disqus
↑ Back to top | Tablatures and chords are parodies/interpretations of the original songs. You may use it for private study, scholarship, research or language learning purposes only