>
 >
There There 1

There There 1 Guitar Tabs

Radiohead - There There 1 chords, tabs, tablatures, lyrics

Guitar lessons | Add/correct | Request | Top 50 tabs Artists:  A B C D E F G H I J K L M N O P Q R S T U V W X Y Z 0-9

There There 1 Guitar Tabs – Radiohead

CD, Sheet music, Poster

Do you like There There 1? Share with your friends now
ChordsChords v2TabsTabs v2Tabs v3Tabs v4
Composer(s) : Yorke, Greenwood, O'Brien, O'Brien, Selway



THERE THERE

This song has an unusual structure, in that there is

intro
verse
chorus
verse
chorus
break
outro
outro

That's what I called the sections anyway lol, I'm pretty sure this tab is at leats 90% correct from studying them playing 

live. The chords and riffs are basic guides from the recorded version - live, Thom improvises with the chords all over the 

place (I've put some optional notes in brackets). Also note that there's only one guitar until the Outro, then Jonny gives up 

playing those funky jungle drums and rocks out :-D

Enjoy




INTRO
Gt. 1 (thom)

e ------------------------------------------------------------------------------
B ------------------------------------------------------------------------------
G ------------------------------------------------------------------------------
D ------------------------------------------------------------------------------
A ------------------------------------------------------------------------------
E ----(7)-----let ring for feedback---------------------------------------------



  Bm7   << Implied chord

e ----------------0h2------------2p0---0h2------------2p0h2---------0h2--(0)----
B ----------0----------0----0--------0-----0---0---------------0----------------
G ----2---2---2------------2-2---------------2----------------2-2---------------
D ------------------------------------------------------------------------------
A --2---2-------2----2---2-----2------------------2-2-------2-----2-------------
E ------------------------------------------------------------------------------



VERSE

      Bmsus*                    B8  A8  G8
e ------------------------------x---x-------------------------------------------
B -----0-----0-----0------------0---x---0---------------------------------------
G -----7-----7-----7------------0---2---0---------------------------------------
D -----0-----0-----0------------0---0---0---------------------------------------
A -----x-----x-----x------------x---x---x---------------------------------------
E -----7--5--7--5--7----etc-----7---5---3---------------------------------------
      'In pitch dark..........landscape'

      Bmsus*                    B8  A8  G8
e ------------------------------x---x-------------------------------------------
B -----0-----0-----0------------0---x---0---------------------------------------
G -----7-----7-----7------------0---2---0---------------------------------------
D -----0-----0-----0------------0---0---0---------------------------------------
A -----x-----x-----x------------x---x---x---------------------------------------
E -----7--5--7--5--7----etc-----7---5---3---------------------------------------
      'Broken branches........speak'



CHORUS

    Amaj                    Amaj/F#    (Asus4/F#)   B8  A8 G8
e --0--0--0--0--0--0--0--0---------------------------x--x------------------------
B --2--2--2--2--2--2--2--2--2--2--2--2--3--3--2--2---0--x--0---------------------
G --2--2--2--2--2--2--2--2--2--2--2--2--2--2--2--2---0--2--0---------------------
D --2--2--2--2--2--2--2--2--2--2--2--2--2--2--2--2---0--0--0--(h4)---------------
A --0--0--0--0--0--0--0--0--x--x--x--x--x--x--x--x---x--x--x---------------------
E --------------------------2--2--2--2--2--2--2--2---7--5--3--------------------- Repeat this section
          'Just cos you feel it, doesn't mean it's there'



e ----------------------------------------0h2-----------------------------------
B ------------------------------------------------------------------------------
G ------------------------------------------------------------------------------
D ------------------------------------------------------------------------------
A ------------------------------------------------------------------------------
E ----(7)-----let ring for feedback---------------------------------------------




VERSE 2

      Bmsus*                    B8  A8  G8
e ------------------------------x---x-------------------------------------------
B -----0-----0-----0------------0---x---0---------------------------------------
G -----7-----7-----7------------0---2---0---------------------------------------
D -----0-----0-----0------------0---0---0---------------------------------------
A -----x-----x-----x------------x---x---x---------------------------------------
E -----7--5--7--5--7----etc-----7---5---3---------------------------------------
      'There's always.........shipwreck'

      Bmsus*                    B8  A8  G8
e ------------------------------x---x-------------------------------------------
B -----0-----0-----0------------0---x---0---------------------------------------
G -----7-----7-----7------------0---2---0---------------------------------------
D -----0-----0-----0------------0---0---0---------------------------------------
A -----x-----x-----x------------x---x---x---------------------------------------
E -----7--5--7--5--7----etc-----7---5---3---------------------------------------
      'Steer away from.......disaster'



CHORUS 2

    Amaj                    Amaj/F#    (Asus4/F#)   B8  A8 G8
e --0--0--0--0--0--0--0--0---------------------------x--x------------------------
B --2--2--2--2--2--2--2--2--2--2--2--2--3--3--2--2---0--x--0---------------------
G --2--2--2--2--2--2--2--2--2--2--2--2--2--2--2--2---0--2--0---------------------
D --2--2--2--2--2--2--2--2--2--2--2--2--2--2--2--2---0--0--0--(h4)---------------
A --0--0--0--0--0--0--0--0--x--x--x--x--x--x--x--x---x--x--x---------------------
E --------------------------2--2--2--2--2--2--2--2---7--5--3--------------------- Repeat this section
          'Just cos you feel it, doesn't mean it's there'



BREAK
(Thom improvises around these patterns)


  Bm            Dm            Am               Em
e -------------------------------------------------------------------------------
B --0-0-0-0-0---0--0--0--0----0-0-0-0-----------0-0---2-0-0----------------------
G --x-x-x-x-x---x--x--x--x----x-x-x-x-----------0-0---0-0-0----------------------
D --7-7-9-7-6---10-10-12-10---5-5-7-5-----------2-0h2-4-2-2----------------------
A --x-x-x-x-x---x--x--x--x----x-x-x-x--5-5-3-3--2-2---2-2-2----------------------
E --7-7-7-7-7---10-10-10-10---5-5-5-5-----------0-0---0-0-0----------------------
   'There thereeeeeeeee....




OUTRO - listen for the rhythm

Gt.1 (Thom)
    Bm           Dm            Am          Em
e --------------------------------------------------------------------------------
B --7-----7------10-----10-----5-----5-----0--0--0--------------------------------
G --7-----7------10-----10-----5-----5-----0--0--0--------------------------------
D --0-----0------0------0------0-----0-----2--0--2--------------------------------
A --x-----x------x------x------x-----x-----2--2--2--------------------------------
E --7--5--7--5---10--8--10--8--5--3--5--3--0--0--0--------------------------------
  'Why so.......and lonely....lonely.....and lonely?'
  'Heaven sent...to me........to me......to me..'


Gt.2 (Jonny)
    Bm                                        Dm
e --------7---------7---------7---------7-----------------------------------------
B -----------------------------------------------------12--------------12---------
G ------7---7-----7---7-----7---7-----7---7---------------10--------------9-------
D --7h9-------7h9-------7h9-------7h9---------10h12-----------10h12---------------
A --------------------------------------------------12--------------12------------
E --------------------------------------------------------------------------------

                           
     Am                          Em
e-----------7---------7------------------7---------7-----------7------------------
B---------------------------------------------------------------------------------
G---------5---5-----5---4-------------7---------7-----------7---------------------
D-----5h7-------5h7-----------------------9---------9-----------9-----------------
A---------------------------------7-7--------7-7--------7-7-----------------------
E---------------------------------0-0--------0-0--------0-0-----------------------



Outro second time round, hit distortion

Gt.1 same as before
Gt.2 (Jonny)

    Bm                                               Dm
e --------7---------7---------7----------------------------------------------------
B ------------------------------------------------------------12-------------------
G ------7---7-----7---7-----7---7--9-9-9-9-9-8-7-----------7-----------------------
D --7h9-------7h9-------7h9--------x-x-x-x-x-x-x-----10h12-----------10h12---------
A ---------------------------------7-7-7-7-7-6-5-----------12----------------------
E ---------------------------------------------------------------------------------

                  Am                  Em   |---Jonny uses his cutoff switch thingies---|
e ---------------------7-----------------------------------------------------------
B -----------------------5-----------------10----8---------------------------------
G --9-9-9-9-8-7-5-2--5------9-8-7-6-5-2----12b14-10b12--14-14\-12-12--14\/12-------
D --x-x-x-x-x-x-x-x---------x-x-x-x-x-x--------------------------------------------
A --7-7-7-7-6-5-3-0---------7-6-5-4-3-0--------------------------------------------
E ---------------------------------------------------------------------------------


    Bm                                        Dm
e --------7---------7---------7----------------------------------------------------
B --------------------------------------------------------12--------------12-------
G ------7---7-----7---7-----7---7-9-9-9-9-9-8-7--------------10--------------9-----
D --7h9-------7h9-------7h9-------x-x-x-x-x-x-x---10h12-----------10h12------------
A --------------------------------7-7-7-7-7-6-5---------12--------------12---------
E ---------------------------------------------------------------------------------
  'We are accidents..............................waiting,'
                           
     Am                          Em
e-----------7---------7------------------------------------------------------------
B---------------------------------10----8------------------------------------------
G---------5---5-----5---4---------12b14-10b12--14-14\-12-12--14\/12----------------
D-----5h7-------5h7----------------------------------------------------------------
A----------------------------------------------------------------------------------
E----------------------------------------------------------------------------------
    'waiting...................to happen...'


    Bm                                        Dm
e --------7---------7---------7----------------------------------------------------
B --------------------------------------------------------12--------------12-------
G ------7---7-----7---7-----7---7-9-9-9-9-9-8-7--------------10--------------9-----
D --7h9-------7h9-------7h9-------x-x-x-x-x-x-x---10h12-----------10h12------------
A --------------------------------7-7-7-7-7-6-5---------12--------------12---------
E ---------------------------------------------------------------------------------
  'We are accidents..............................waiting,'


     Am                          Em
e-----------7---------7------------------7---------7-----------7------------------
B---------------------------------------------------------------------------------
G---------5---5-----5---4-------------7---------7-----------7---------------------
D-----5h7-------5h7-----------------------9---------9-----------9-----------------
A---------------------------------7-7--------7-7--------7-7-----------------------
E---------------------------------0-0--------0-0--------0-0-----------------------
  'waiting...................to happen...'



e --------------------------------------------------------------------------------
B --------------------------------------------------------------------------------
G --------------------------------------------------------------------------------
D --(7)---------------------------------------------------------------------------
A --------------------------------------------------------------------------------
E --------(7)------------go mental with feedback for a bit hehe-------------------




That's all folks, it's easier than it looks....honest ;)





Comments


Popular Radiohead tabs & chords
Big Ideas Bass Tabs
Exit Music For A Film 2 Bass Tabs
Morning Mr Magpie Bass Tabs
The Tourist 2 Chords
Bodysnatchers 1 Tabs
Faust Arp 2 Tabs
Go Slowly Tabs
How To Disappear Completely Tabs
Morning Mr Magpie Tabs
Sail To The Moon Tabs


Song lyrics



↑ Back to top | Tablatures and chords are parodies/interpretations of the original songs. You may use it for private study, scholarship, research or language learning purposes only
© 2014 AZChords.com Contact us | Privacy policy | DMCA | Add/correct tabs | Request tabs | Top 50 tabs