» » »

Radiohead, The Gloaming Bass tabs (ver.3)

Artists:  A B C D E F G H I J K L M N O P Q R S T U V W X Y Z # 

The Gloaming Bass tabs (ver.3)

Radiohead Tabs
Rating:
0/5 (0 votes)
The Gloaming lessons Tabs too difficult? Try these video lessons and learn fast
                
There is no bass on the studio recording, only live.

|PLEASE NOTE| This is tabbed from the Glastonbury 2003 performance, because there are 
dozens of variations, there is no 'set tab'. However the variations are small and thus 
to work out yourself. :)

G|---------------12----------------------------------------------------------|
D|---------12-14-------------------------------------------------------------|
A|12-14-15-------------------------------------------------------------------|
E|---------------------------------------------------------------------------|

Other octave variations:

G|---------------------------------------------------------------------------|
D|----------5----------------------------------------------------------------|
A|------5-7------------------------------------------------------------------|
E|5-7-8----------------------------------------------------------------------|

G|---------------------------------------------------------------------------|
D|-----------5---------------------------------------------------------------|
A|----3--5-7-----------------------------------------------------------------|
E|5-7------------------------------------------------------------------------|
            

comments powered by Disqus
↑ Back to top | Radiohead Bass for The Gloaming. Lyrics for acoustic guitar and electric guitar. Tablatures and chords are parodies/interpretations of the original songs. You may use it for private study, scholarship, research or language learning purposes only