» » »

The Gloaming Bass tabs (ver.2)

Artists:  A B C D E F G H I J K L M N O P Q R S T U V W X Y Z # 

The Gloaming Bass tabs (ver.2)

Radiohead
Rating:
0/5 (0 votes)

Hard to play? Try these video lessons and learn fast.
                The song has standard tuning, EADG

The song doesnt have that much true bass guitar in it, but if you classify the low stuff 
as bass, here it is:

G----------------------------|
D----------------------------|
A----------------------------|
E----5----8--8-8/////5-------|

Although this part doesnt show up in the recorded version on the album, Its there when 
Yorke says "When you're breathing" and such in live versions and from in the basement.

G---------------------12-14-----------------12-14-|
D------------------14--------------------14-------|
A-----12---14--15-----------12---14--15-----------|
E-------------------------------------------------|(repeat a bunch)
            
Hard to play? Try these video lessons and learn fast. | Correct




comments powered by Disqus
↑ Back to top | Tablatures and chords are parodies/interpretations of the original songs. You may use it for private study, scholarship, research or language learning purposes only