>
 >
The Bends 3

The Bends 3 Bass Tabs

Radiohead - The Bends 3 chords, tabs, tablatures, lyrics

Guitar lessons | Add/correct | Request | Top 50 tabs Artists:  A B C D E F G H I J K L M N O P Q R S T U V W X Y Z 0-9

The Bends 3 Bass Tabs – Radiohead

CD, Sheet music, Poster

Do you like The Bends 3? Share with your friends now
Bass TabsBass Tabs v2Bass Tabs v3ChordsChords v2Chords v3TabsTabs v2Tabs v3

                                The Bends                                  


                                                                  Radiohead
Bass



     H           W                   W                   W                 
G||-----------|-------------------|-------------------|-------------------|
D||-----------|-------------------|-------------------|-------------------|
A||-----------|-------------------|-------------------|-------------------|
E||-----------|-------------------|-------------------|-------------------|


  W                   Q    Q    Q    S E.     H        H         
-------------------|-----------------------|--------------------|
-------------------|-----------------------|--------------------|
-------------------|--5----5----5----3-2---|--3-----------------|
-------------------|-----------------------|-----------3--------|


  H        S S S S E  E     Q    Q    Q    S E.     H        H         
-------------------------|-----------------------|--------------------|
-------------------------|-----------------------|--------------------|
--3--------3-2-3-2-------|--5----5----5----3-2---|--3-----------------|
-------------------3--0--|-----------------------|-----------3--------|


  H        S S S S E  E     Q    Q    Q    S E.     H        H         
-------------------------|-----------------------|--------------------|
---------------5-7-5-----|-----------------------|--------------------|
-------------7--------7--|--5----5----5----3-2---|--3-----------------|
--8--------8-------------|-----------------------|-----------3--------|


  H        S S S S E  E     Q    Q     E  E  E  E     H        H         
-------------------------|-------------------------|--------------------|
-------------------------|------------/7--5--4-----|--------------------|
--3--------3-2-3-2-------|--5----5--------------5--|--3-----------------|
-------------------3--0--|-------------------------|-----------3--------|


    H        S S S S E  E     H.           E  E     H.           E  E   
---------------------------|---------------------|---------------------|
---------------------------|---------------------|---------------------|
--/15--------3-2-3-2-------|---------------------|------------------2--|
---------------------3--0--|--0------------0--2--|--3------------3-----|


  H.           E  E     H.           E  E     H.           E  E   
---------------------|---------------------|---------------------|
---------------------|---------------------|---------------------|
--3------------3-----|--3------------3-----|---------------------|
------------------3--|------------------3--|--0------------0--5--|


  H.           E  E     H.           E  E     E  Q    E  E  E  E  E   
---------------------|---------------------|-------------------------|
---------------------|---------------------|-------------------------|
---------------------|--3------------3--2--|--3--3----2--3--2--------|
--3------------3--0--|---------------------|-------------------3--0--|


  Q    Q    E  E  E  E     E  Q    Q    E  E  E   
------------------------|------------------------|
------------------------|------------------------|
------------------------|---------------------5--|
--5----5----0--3--4--5--|--L--3----0----3--3-----|


  E  E  Q    E  E  E  E     E  Q    Q    E  E  E   
--------3-------3-----7--|--L--5----4-------------|
-----3-------5-----5-----|---------------5--------|
--L----------------------|------------------3-----|
-------------------------|---------------------5--|


  Q.     E  E  E  E  E     Q.     E  E  Q    E     Q.     E  E  Q    E   
------------------------|-----------------------|-----------------------|
---------------------4--|--5---------5--5-------|-----------------------|
--7---------7-----------|---------5----------5--|--3---------3--3-------|
---------7-----7--0-----|-----------------------|---------3----------3--|


  Q.     E  E  E  E  E     Q.     E  E  E  E  S  S   
------------------------|---------------------------|
---------------------5--|---------------------5h-7h-|
--3------5--7--7--7-----|--7---------7--------------|
------------------------|---------7-----7--0--------|


  Q.     E  Q     E   E     Q.     E  E  Q    E     Q.     E  E  E  E  E   
-------------------------|-----------------------|------------------------|
--5---------5s----7s--5--|-----------------------|------------------------|
---------7---------------|--3---------3--3-------|--3------2--3--2--------|
-------------------------|---------3----------3--|------------------3--0--|


  Q    Q    Q    S E.     H        H           Q.     E  E  E  E  E   
-----------------------|--------------------|------------------------|
-----------------------|--------------------|------------5--7--5-----|
--5----5----5----3-2---|--3-----------------|---------7-----------7--|
-----------------------|-----------3--------|--8---------------------|


  Q    Q     E  E  E  E     H        H             Q    E  E  E  E  E  E   
-------------------------|--------------------|---------------------------|
------------/7--5--4-----|--------------------|---------------------------|
--5----5--------------5--|--3-----------------|--/15----3--2--3--2--------|
-------------------------|-----------3--------|---------------------3--0--|


  E  E  Q.     S S S E.     E  E  Q.     S S S E.   
-------------------------|-------------------------|
-------------------------|-------------------------|
-------------------------|-------------------------|
--5--5---------5-5-5-----|--5--5---------5-5-5-----|


  E  E  Q.     S S S E.     E  E  Q.     S S S E.   
-------------------------|-------------------------|
-------------------------|-------------------------|
-------------------------|-------------------------|
--0--0---------0-0-0-----|--5--5---------5-5-5-----|


  E  E  Q.     S S S S E      S S S S S S S S S S S S S S S S  
---------------------------|----------------------------------|
---------------------------|----------------------------------|
---------------------------|----------------------------------|
--5--5---------5-5-5---7S--|--0-0-0-0-0-0-0-0-0-0-0-0-0-0-0-0-|


  S S S S S S S S S S S S S S S S    H.           E  E   
----------------------------------|---------------------|
----------------------------------|---------------------|
----------------------------------|---------------------|
--0-0-0-0-0-0-0-0-0-0-0-0-0-0-0-0-|--0------------0--0--|


  S  S  Q    S  S  S  S Q.        Q.     E  E  Q    E   
-------------------------------|-----------------------|
-------------------------------|-----------------------|
-------------------------------|--3---------3--3-------|
--3h-5p-3----0h-3p-0h-3-0------|---------5----------3--|


  E  E  E  E  E  E  E  E     Q.     E  E  E  E  S  S   
-----------5--5--3--------|---------------------------|
--------------------5-----|---------------------5h-7h-|
--3--5--3-----------------|--7---------7--------------|
-----------------------5--|---------7-----7--0--------|


  Q.     E  Q     E   E     Q.     E  E  Q    E     Q.     E  E  E  E  E   
-------------------------|-----------------------|------------------------|
--5---------5s----7s--5--|-----------------------|------------------------|
---------7---------------|--3---------3--3-------|--3------2--3--2--------|
-------------------------|---------3----------3--|------------------3--0--|


  Q    Q    Q    S E.     H        H           Q.     E  E  E  E  E   
-----------------------|--------------------|------------------------|
-----------------------|--------------------|------------5--7--5-----|
--5----5----5----3-2---|--3-----------------|---------7-----------7--|
-----------------------|-----------3--------|--8---------------------|


  Q    Q     E  E  E  E     H        H             Q    E  E  E  E  E  E   
-------------------------|--------------------|---------------------------|
------------/7--5--4-----|--------------------|---------------------------|
--5----5--------------5--|--3-----------------|--/15----3--2--3--2--------|
-------------------------|-----------3--------|---------------------3--0--|


  E  E  Q.     S S S E.     E  E  Q.     S S S E.   
-------------------------|-------------------------|
-------------------------|-------------------------|
-------------------------|-------------------------|
--5--5---------5-5-5-----|--5--5---------5-5-5-----|


  E  E  Q.     S S S E.     E  E  Q.     S S S E.   
-------------------------|-------------------------|
-------------------------|-------------------------|
-------------------------|-------------------------|
--0--0---------0-0-0-----|--5--5---------5-5-5-----|


  E  E  Q.     S S S S E     S S S S S S S S S S S S S S S S  
--------------------------|----------------------------------|
--------------------------|----------------------------------|
--------------------------|----------------------------------|
--5--5---------5-5-5---7--|--8-8-8-8-8-8-8-8-8-8-8-8-8-8-8-8-|


  S S S S  S  S  S  S S S S S S S S S      S S Q    Q    S S S E.   
--------------------------------------||---------------------------|
--------------------------------------||*--5-5-5----5----5-5-------|
----------------------7-7-7-7-9-9-9-9-||*--------------------3-5---|
--8-8-8-8-10-10-10-10-----------------||---------------------------|


  S E.  S S E  E  S S S  S  E     S S Q    Q    S S S S  S S  
-------------------------------|-----------------------------|
--4-----5-5-5--5--5-5-4h-5p-4--|---------------------------5-|
----5--------------------------|--7-7-7---------7---7-5h-7---|
-------------------------------|-----------0------0----------|


  S S Q    Q    S S S S S S  4x  W                   W                 
-----------------------------||-------------------|-------------------|
----------------------------*||-------------------|-------------------|
--7-7-7---------7---7---5-7-*||-------------------|-------------------|
-----------0------0---8------||--0----------------|--3----------------|


  W                   W                  
-------------------|-------------------||
-------------------|-------------------||
--3----------------|--L----------------||
-------------------|-------------------||




Duration Legend
---------------
W - whole
H - half
Q - quarter
E - 8th
S - 16th
T - 32nd
X - 64th
. - note dotted
|-n-|  - n-tuplets


Tablature Legend
----------------
L - tied note
x - dead note
g - grace note
(n) - ghost note
> - accentuded note
NH - natural harmonic
AH - artificial harmonic
TH - tapped harmonic
SH - semi harmonic
PH - pitch harmonic
h - hammer on
p - pull off
b - bend
br - bendRelease
pb - preBend
pbr - preBendRelease
brb - bendReleaseBend
\n/ - tremolo bar dip
\n - tremolo bar dive
-/n - tremolo bar Release up
/n\ - tremolo bar inverted dip
/n - tremolo bar return
-\n - tremolo bar Release down
S - shift slide
s - legato slide
/ -  slide into from below or out of upwards
\ -  slide into from above or out of downwards
~ - vibrato
W - wide vibrato
tr - trill
TP - tremolo picking
T - tapping
S - slap
P - pop
< - fade in
^ - brush up
v - brush down





Comments


Popular Radiohead tabs & chords
Creep Bass Tabs
Everyone Needs Someone To Hate Bass Tabs
15 Step 1 Chords
Bishops Robes Chords
Bullet Proof Chords
Idioteque 1 Chords
The Tourist 2 Chords
Kid A Tabs
Polyethylene Pt Tabs
Everything In Its Right Place Ukulele


Song lyrics



↑ Back to top | Tablatures and chords are parodies/interpretations of the original songs. You may use it for private study, scholarship, research or language learning purposes only
© 2014 AZChords.com Contact us | Privacy policy | DMCA | Add/correct tabs | Request tabs | Top 50 tabs