>
 >
The Bends 2

The Bends 2 Guitar Tabs

Radiohead - The Bends 2 chords, tabs, tablatures, lyrics

Guitar lessons | Add/correct | Request | Top 50 tabs Artists:  A B C D E F G H I J K L M N O P Q R S T U V W X Y Z 0-9

The Bends 2 Guitar Tabs – Radiohead

CD, Sheet music, Poster

Do you like The Bends 2? Share with your friends now
Bass TabsBass Tabs v2Bass Tabs v3ChordsChords v2Chords v3TabsTabs v2Tabs v3
* RADIOHEAD - The Bends
Intro
 [4x]

E:--3-----------0--------0---:
B:--2-----------3--------3---:
G:--3-----------0--------0---:
D:--0-----------2--------2---:
A:-----3--2--3--3--2--3--3---:
E:---------------------------:

[Verse] :
Em
Where do we go from here?
    G
The words are coming out all weird.
              C
Where are you now,

When I need you?
Em
Alone on an aeroplane,
G                                 C
Falling asleep against the window pane.

My blood will thicken...

E:--0-0-----------3--2-----x-x--3-3-3---------------------------------:
B:--2-2--2--3--5--------5--x-x--5-5-5--5--6--8--11----11----11b12b11--:
G:--2-2--------------------x-x--5-5-5--------------12----12-----------:
D:--2-2--------------------x-x--5-5-5---------------------------------:
A:--0-0--------------------x-x--3-3-3---------------------------------:
E:-------------------------x-x----------------------------------------:

[Verse]
I need to wash myself again,
To hide all the dirt and pain,
Cause I'd be scared...
That there's nothing underneath.

Em
Who are my real friends?
G
Have they all got the bends?
            C
Am I really sinking

    Th  -  is    low?
E:---0--0--0--0--x--x--x--x--x--x--:
B:---1--1--1--1--x--x--x--x--x--x--:
G:---3--3--3--3--2--2--2--2--2--2--:
D:---2--2--2--2--x--x--x--x--x--x--:
A:---3--3--3--3--x--x--x--x--x--x--:
E:---------------x--x--x--x--x--x--:

[Chorus] :
D
My baby's

    got the bends, oh no...
E:----------0---------------0---:
B:----------3---------------3---:
G:----------0---------------0---:
D:----------2---------------2---:
A:--3---2---3----2----------3---:
E:------------------------------:

D
We don't have any

    re - al  friends,  oh no...
E:-----------0------------------0---:
B:-----------3------------------3---:
G:-----------0------------------0---:
D:-----------2------------------2---:
A:--3----2---3-------2----------3---:
E:----------------------------------:

         A
I'm just lying in a bar with my drip feed on,
                                                    Em
Talking to my girlfriend waiting for something to happen.
I wish it was the sixties,
I wish we could be happy
I wish, I wish, I wish
That something would

    happen...
E:---------------------------------------------------------------:
B:---------------------------------------------------------------:
G:--0-0-0-0-0-0-0-0-0-0-0-0-0-0-0-3-3-3-3-3-3-3-3-3-3-3-3-3-3-3--:
D:--2-2-2-2-2-2-2-2-2-2-2-2-2-2-2-2-2-2-2-2-2-2-2-2-2-2-2-2-2-2--:
A:--2-2-2-2-2-2-2-2-2-2-2-2-2-2-2-2-2-2-2-2-2-2-2-2-2-2-2-2-2-2--:
E:--0-0-0-0-0-0-0-0-0-0-0-0-0-0-0-0-0-0-0-0-0-0-0-0-0-0-0-0-0-0--:

[Verse]
Where do we go from here?
The planet is a gunboat, In a sea of fear...
And where are you?
They brought in the CIA,
The tanks and the whole marines to blow me away, To blow me sky high...

Guitar 2 plays this over this verse:

E:-------------------------------------------------------------------:
B:-------------------------------------------------------------------:
G:-11--9--7--5--4-----4--12-11--5--7--5--4--5----5----7----7--9--11--:
D:-----------------5-------------------------------------------------:
A:--9--7--5--3--2-----2--10--9--7--5--3--2--3--3---3--5--5----7---9--:
E:-----------------3-------------------------------------------------:

[Chorus]
My baby's got the bends..
We don't have any real friends...

         A
I'm just lying in a bar,
With my drip feed on.
Talking to my girlfriend,
                          Em
Waiting for something to happen.
  A
I wish it was the sixties,
I wish i could be happy,
I wish, I wish, I wish,
                     C(2)
That something would Happen...

[2x]
E:-----------------------------:
B:--12--12----12--13--12--15---:
G:--12--------------------12---:
D:--12-----12-------------12---:
A:-----------------------------:
E:-----------------------------:
 
[2x]
E:--------------------------------:
B:--5--5--6--5--6--5--6--5--6--5--:
G:--5--5--5--5--5--5--5--5--5--5--:
D:--5--5--5--5--5--5--5--5--5--5--:
A:--------------------------------:
E:--------------------------------:

[2x]
E:-----------------------------:
B:--12--12----12--13--12--15---:
G:--12--------------------12---:
D:--12-----12-------------12---:
A:-----------------------------:
E:-----------------------------:

[2x]
E:--------------------------------:
B:--5--5--6--5--6--5--6--5--6--5--:
G:--5--5--5--5--5--5--5--5--5--5--:
D:--5--5--5--5--5--5--5--5--5--5--:
A:--------------------------------:
E:--------------------------------:

          G
I want to live, breathe,
                               C
I want to be part of the human race.

E:--0-0-0-0-0-0-0-0-0-0-0-0--------------------------------:
B:--1s3-3-3s5-5-5s3-3-3s1-1--0h1--0------------------------:
G:----------------------------------2--0-------------------:
D:--------------------------------------0h2--0-------------:
A:----------------------------------------------0h2--0-----:
E:------------------------------------------------------3--:

          G
I want to live, breathe,
                               C
I want to be part of the human race.

Em
Where do we go from here?
    G
The words are coming out all weird.
              C
Where are you now,

When I need you?





Comments


Popular Radiohead tabs & chords
Electioneering 3 Bass Tabs
The Bends Bass Tabs
No Surprises 3 Chords
2+2=5 Tabs
Bullet Proofi Wish I Was Tabs
Lucky 2 Tabs
Sail To The Moon 1 Tabs
Spooks Intro Tabs
Pearly Ukulele
Prove Yourself Ukulele


Song lyrics



↑ Back to top | Tablatures and chords are parodies/interpretations of the original songs. You may use it for private study, scholarship, research or language learning purposes only
© 2014 AZChords.com Contact us | Privacy policy | DMCA | Add/correct tabs | Request tabs | Top 50 tabs