» » »

Talk Show Host Tabs (ver.1)

Artists:  A B C D E F G H I J K L M N O P Q R S T U V W X Y Z # 

Talk Show Host Tabs (ver.1)

Radiohead
Rating:
0/5 (0 votes)

Hard to play? Try these video lessons and learn fast.
                INTRO:
------

e|-----------------|
B|--------8-8-8-8--|
G|--------8-8-7-5--| PLAY
D|-----------------|  x2
A|-----------------|
E|--6--8-----------|



VERSE:
------

e|-----------------|
B|--------8-8-8-8--|
G|--------8-8-7-5--| PLAY
D|-----------------|  x4
A|-----------------|
E|-----------------|

e|-----------------|
B|-----------------|
G|------8----------| PLAY
D|--6p5------------|  x2
A|-----------------|
E|-----------------|

e|-----------------|
B|--------8-8-8-8--|
G|--------8-8-7-5--| PLAY
D|-----------------|  x2
A|-----------------|
E|-----------------|



VERSE:
------

e|-----------------|
B|--------8-8-8-8--|
G|--------8-8-7-5--| PLAY
D|-----------------|  x4
A|-----------------|
E|-----------------|

e|-----------------|
B|-----------------|
G|------8----------| PLAY
D|--6p5------------|  x2
A|-----------------|
E|-----------------|

e|-----------------|
B|--------8-8-8-8--|
G|--------8-8-7-5--|
D|-----------------|
A|-----------------|
E|-----------------|

   <Guitar break>

e|-----------------|
B|--------8-8-8-8--|
G|--------8-8-7-5--| PLAY
D|-----------------|  x2
A|-----------------|
E|-----------------|



VERSE:
------

e|-----------------|
B|--------8-8-8-8--|
G|--------8-8-7-5--| PLAY
D|-----------------|  x4
A|-----------------|
E|-----------------|

e|-----------------|
B|-----------------|
G|------8----------| PLAY
D|--6p5------------|  x2
A|-----------------|
E|-----------------|

e|-----------------|
B|--------8-8-8-8--|
G|--------8-8-7-5--|
D|-----------------|
A|-----------------|
E|-----------------|

   <Guitar break>

   <Guitar break>

e|-----------------|
B|--------8-8-8-8--|
G|--------8-8-7-5--| PLAY
D|-----------------|  x2
A|-----------------|
E|-----------------|

   <Guitar break>

   <Guitar break>

e|-----------------|
B|--------8-8-8-8--|
G|--------8-8-7-5--| PLAY
D|-----------------|  x2
A|-----------------|
E|-----------------|


---------------------------------------------
---------------------------------------------
            
Hard to play? Try these video lessons and learn fast. | Correct




comments powered by Disqus
↑ Back to top | Tablatures and chords are parodies/interpretations of the original songs. You may use it for private study, scholarship, research or language learning purposes only