» » »

Talk Show Host Tabs (ver.2)

Artists:  A B C D E F G H I J K L M N O P Q R S T U V W X Y Z # 

Talk Show Host Tabs (ver.2)

Radiohead
Rating:
0/5 (0 votes)

Hard to play? Try these video lessons and learn fast.
                ***********************************

Intro:(x2)

|--------------------
|--------8-8-8-8-----<--Let ring
|--------8-8-7-5-----<--
|--------------------
|--------------------
|--8--6--------------
    
   ^  ^  
 Let ring
  Slight 
Palm mute

Verse:

|--------------------
|--------8-8-8-8-----<--Let ring
|--------8-8-7-5-----<--
|--------------------
|--------------------
|--------------------

Fills:

#1
|--------------------
|--------------------
|--------5-7-8-------
|--------------------
|--------------------
|--------------------

#2 Heaps of Phaser let ring
|-6------6-----------
|-8------8-----------
|-8------7-----------
|-6------6-----------
|--------------------
|--------------------



And Thats it (I think)
Send any thoughts corrections etc to:=jesta.es.co.nz
            
Hard to play? Try these video lessons and learn fast. | Correct




comments powered by Disqus
↑ Back to top | Tablatures and chords are parodies/interpretations of the original songs. You may use it for private study, scholarship, research or language learning purposes only