» » »

Radiohead, Subterranean Homesick Alien Tabs (ver.1)

Artists:  A B C D E F G H I J K L M N O P Q R S T U V W X Y Z # 

Subterranean Homesick Alien Tabs (ver.1)

Radiohead Tabs
Rating:
0/5 (0 votes)
Hard to play? Try these video lessons and learn fast.
                This song is in 6/8 so watch your timing.
Listen to the song to get the proper time measurements.

-5----5---5-----------|---4-------------|---------------------|-----------------------
-6----------6p5-------|-----4-----------|---------------------|-----------------------
-7--7---7-------7-6---|-5-----6p5-------|---------------------|-----------------------
-7--------------------|-6---------6p5---|-4-4---------4-------|-------4---4-3-3---3-1-
-5--------------------|-6---------------|-5---5---------5-----|-----------------------
----------------------|-4---------------|-5-----3h5p3---------|-3h5p3---5---4---4-----
                                                                              

----------19--|--15--------19----|--15---------------------------|--------|--------------
-------18-----|---------17-------|------15-13-12-13-12-13--------|-12-3---|--------------
----19--------|-------19---------|-------------------------------|--------|--------------
--------------|------------------|-------------------------------|--------|--------------
--------------|------------------|-------------------------------|--------|--------------
--------------|------------------|-------------------------------|--------|--------------
  for the verse play with this part and play the last 4 bars above.           

---------|---------------------------------------------------------------------
---3/15--|---------------------------------------------------------------------
---------|---------------------------------------------------------------------
---------|---------------------------------------------------------------------
---------|---------------------------------------------------------------------
---------|---------------------------------------------------------------------
               chorus                                                         

-----3-----3------3------3---|-----3-----3-----3-----3----|-----------------------|------
---3-----3------3-----3------|---3-----3-----3-----3------|-----------------------|------
-2-----0---------------------|----------------------------|-----------------------|------
--------------3--------------|-2-----0--------------------|-----------------------|------
--------------------3--------|-------------3--------------|-0h2-2-3-0h2-2-3-------|------
-----------------------------|-------------------3--------|-----------------------|------
 1st ending             2nd ending               3rd ending                   

-------------------------|----------------------------|------|-----------------------
-------------------------|----------------------------|-3----|-----------------------
-------------------------|----------------------0-----|-0----|-----------------------
-0--0--------0---0--2----|----------------0-2-3-------|-3----|-----------------------
------3--2h3---3---------|--0-2-3-2-0-2-3-------------|------|-----------------------
-------------------------|-3--------------------------|-3----|-----------------------
          outro                                                               

-5-5--5---------------|--------------------|----|----------------------------------
-6-6--6---6p5---------|--------------------|----|----------------------------------
-7-7--7-------7--6----|-5-----5-6p5--------|----|----------------------------------
-7-7--7---------------|-6-----------6---5--|-4--|----------------------------------
-5-5--5---------------|-6------------------|-5--|----------------------------------
----------------------|-4------------------|-5--|----------------------------------
            

comments powered by Disqus
↑ Back to top | Radiohead Tabs for Subterranean Homesick Alien. Lyrics for acoustic guitar and electric guitar. Tablatures and chords are parodies/interpretations of the original songs. You may use it for private study, scholarship, research or language learning purposes only