» » »

Radiohead, Subterranean Homesick Alien Bass tabs (ver.1)

Artists:  A B C D E F G H I J K L M N O P Q R S T U V W X Y Z # 

Subterranean Homesick Alien Bass tabs (ver.1)

Radiohead Tabs
Rating:
0/5 (0 votes)
Subterranean Homesick Alien lessons Tabs too difficult? Try these video lessons and learn fast
                Subterranean Homesick Alien by Radiohead
Bas Tab by Quillo   
 
Intro (Play after guitar comes in)
G|------------------------------------------|
D|------------------------------------------|
A|------10/12-12-12-12-12-12-12-12-12-12/0--|
E|----------------------------------------3-|

Verse			    
G|-----------------------------------------------------------|
D|-----------------------------------------------------------|
A|-----------------------------------------------------------| 
E|-3-3-3--3-3-33--3-3-3--3-3-33--3-3-3--3-3-3--3-3-3--3-3-33-| 

“The Breath of the Morning”			   “Cracks in the Pavement”
G|-----------------------------------------------------------------------|
D|-----------------------------------------------------------------------|
A|---------------------------------------------------5/10-12-14-15-17----|
E|-3-3-3--3-3-33--3-3-3--3-3-33--3-3-3--3-3-3--3-3-3------------------10-|

G|---------------------------------------------|
D|------5-3--------5--3-------5-3---------5/0--|
A|----------5----------5----------5------------|
E|-3-3-3------3-3-3------3-3-3------3-3-3----1-|

“Up Above”
G|----------------------------------------------|
D|------5-3--------5-3--------5-3---------7-5---|
A|----------5----------5----------5-----------5-|
E|-3-3-3------3-3-3------3-3-3------3-3-3-------|

G|---------------------------------------------------|
D|------5—3-------5-3-3h5-----5-3-3------------------|
A|--------5---------------------------10-12-14-15-17-|
E|-3-3-3----3-3-3--------3-3-3------3----------------|

G|-------------------------------------------------------|
D|------5-3-3h5------5-3-3h5------5-3-3h5----------------|
A|----------------------------------------10-12-14-15-17-|
E|-3-3-3--------3-3-3--------3-3-3-----------------------|

Chorus: “Uptight”
G|---------------------------------------------|
D|--------------------------------23-----------|
A|-----------------------------235------3------|
E|-1---1/8---10/3--0h3--0h3--35----------------|

G|-----------------------------------|
D|-------------------2-3-2-0-3-2-0---|
A|-------------2-3-5---------------3-|
E|-3---3---3-5-----------------------|

Verse
G|----------------------------|
D|----------------------------|
A|----------------------------|
E|-3-3-3--3-3-3--3-3-3--3-3-3-|

G|---------------------------------|
D|---------------------------------|
A|------------------------------5--|
E|-3-3-3--3-3-3--3-3-3--3-3-3----7-|

“I wish that they'd swoop down”
G|----------------------------------|
D|----------------------------------|
A|-----------------------------3-5--|
E|-3-3-3--3-3-3--3-3-33--3-3-3------|

G|----------------------------------------|
D|----------------------------------------|
A|----------------------5/10-12-14-1514---|
E|-3-3-3--3-3-3--3-3-3-----------------15-|

G|----------------------------------------------|
D|------5-3--------5-3--------5-3---------7-5---|
A|----------5----------5----------5-----------5-|
E|-3-3-3------3-3-3------3-3-3------3-3-3-------|

“I'd tell all my friends”
G|--------------------------------------------------------|
D|------5-3-3------5-3-3h5-------5-3-3--------------------|
A|-------------------------------------10-12-14-1514---10-|
E|-3-3-3------3-3-3--------3-3-3--------------------15----|
		               
				“But I'd be all right”
G|---------------------------------------------------|
D|------5-3-3h5-----5-3-3h5--------------------------|
A|---------------------------------------------------|
E|-3-3-3-------3-3-3-------3------------33-3-33-3/15-|

G|---------------------------------------|
D|-------------5-5-55--5-5-55--5-5-5-7-9-|
A|---------------------------------------|
E|-15-15-1515----------------------------|

G|------------------------7-5-4-----------|
D|-5-5-55--5-5-55--5-5-55-------7-5-3-2---|
A|--------------------------------------5-|
E|----------------------------------------|

Chorus “Uptight”
G|---------------------------------------|
D|---------------------------------------|
A|-------------------------------2-3-2---|
E|-1---1/8---10/3--0h3--0h3--3-5-------3-|

G|-----------------------------------------------|
D|-------------------------------------2-3---5---|
A|-------------------------------2-3-5---------3-|
E|-1---1/8---10/3--0h3--0h3--3-5-----------------|

Ending
G|-----------------------------------------------------------|
D|-32-0---32-0------23------3------3--------3-------3--------|
A|---------------235-----3---5------5---------5--------5-----|
E|------3------35-------------3-3-3---3-3-3----3-3-3----3--3-|

G|------------------------------------------------------|
D|------------------------------0/12--------------------|
A|-------------------------------------11---------------|
E|-3-3-3-01-3-3-3--3-3-3--3-3-3—------------10----------|

-----------------------------------------------------
                            
Please do rate it,          
It took a while =)            
                              
                      
            

comments powered by Disqus
↑ Back to top | Radiohead Bass for Subterranean Homesick Alien. Lyrics for acoustic guitar and electric guitar. Tablatures and chords are parodies/interpretations of the original songs. You may use it for private study, scholarship, research or language learning purposes only