>
 >
Optimistic

Optimistic Bass Tabs

Radiohead - Optimistic chords, tabs, tablatures, lyrics

Guitar lessons | Add/correct | Request | Top 50 tabs Artists:  A B C D E F G H I J K L M N O P Q R S T U V W X Y Z 0-9

Optimistic Bass Tabs – Radiohead

CD, Sheet music, Poster

Do you like Optimistic? Share with your friends now
Bass TabsBass Tabs v2ChordsTabsTabs v2Tabs v3Tabs v4Ukulele
RADIOHEAD - "OPTIMISTIC"

Bass "IMROV" section:

-This is the section of "bass improv" before the "jazz breakdown outro".
I've seen that it was tabbed with a note to improv on the high "D" string, so I decided 
tab the whole thing out a la album version(Kid A) because it does a bit more than just 
on the high "D". Some of the timing is tricky, so listen while you play.


Side Note: I'm not positive if the triplets that you will see are regarded as 1/4 note 
1/8 note triplets, so once again, if you are thrown off by that, just listen to the song.

_______________________________________________________________________
TUNING: DADG
| 3 |= triplet
h= hammer on
p= pull off
x= mute
(mutes are optional - I have a slightly funky style and I like to use them.)
_______________________________________________________________________

(1st of 5 sets of "Oooohhs..")


 Ooohh        ooohh         ooohh
G------------------------------------------------------------|
D-0-12-12-x--------10h12----0---12-12--X-X-10--X-12--10------|
A----------x-10h12--------------------------------------12-x-|
D------------------------------------------------------------|
          |  3 |   3   |               |  3  |
           TRIPLETS


(2nd set of "Ooooohhs..")

ooohh  ooohh        ooohh
G-------------------------------------------------------|
D------------10-------0----12--------12-10----10h12--10-|
A-10---10-12-----12-----------12-----------12-----------|
D--------------------------------0----------------------|
       |   3   |          |   3   |


(3rd set)

 ooohh      ooohh            ooohh
G-------------------------------------------------|
D-0---12-----10h12-------10--0--------------------|
A---------12-------10h12--------------------------|
D-------------------------------0-0---10h12-12-12-|
          |  3   |    3    |
            TRIPLETS


(4th set)

 ooohh   ooohh   ooohh
G-------------------------------------|
D------------------------12-x-10-x-12-|
A------------3-x----3h5---------------|
D-5------5-x-----0--------------------|


(5th set)

 ooohh    ooohh          ooohh
G--------------------------|
D-----12-------------------|
A-10------12h15p12--8--x-5-|
D--------------------------|





Comments


Popular Radiohead tabs & chords
A Punch-Up At The Wedding Bass Tabs
Karma Police 4 Bass Tabs
Meeting In The Aisle 3 Bass Tabs
Pact Like Sardines In A Crushed Tin Can Bass Tabs
Sit Down Stand Up Bass Tabs
Million Dollar Question Chords
Paranoid Android 2 Chords
Idioteque 1 Tabs
Egyptian Song Ukulele
House Of Card Ukulele


Song lyrics



↑ Back to top | Tablatures and chords are parodies/interpretations of the original songs. You may use it for private study, scholarship, research or language learning purposes only
© 2014 AZChords.com Contact us | Privacy policy | DMCA | Add/correct tabs | Request tabs | Top 50 tabs