» » »

Optimistic Tabs (ver.2)

Artists:  A B C D E F G H I J K L M N O P Q R S T U V W X Y Z # 

Optimistic Tabs (ver.2)

Radiohead
Rating:
0/5 (0 votes)

Tabs too difficult? Try these video lessons and learn fast.
                Standard Tuning

Intro:

e|-------------------------------------1-1-1-1-1-1/3--2-2-2-2-2-2-2--|
B|--10--10--10-10/12\7--7-7-7-7-7-7-7--1-1-1-1-1-1/3--3-3-3-3-3-3-3--|
G|--10--10--10-10/12\7--7-7-7-7-7-7-7--2-2-2-2-2-2/4--2-2-2-2-2-2-2--|
D|--10--10--10-10/12\7--7-7-7-7-7-7-7-----------------0-0-0-0-0-0-0--|
A|-------------------------------------------------------------------|
E|-------------------------------------------------------------------|

e|---------------------------------------1-1-1-1-1-1/3--2-2-2-2-2-2-2--|
B|--10-10-10--10-10/12\7--7-7-7-7-7-7-7--1-1-1-1-1-1/3--3-3-3-3-3-3-3--|
G|--10-10-10--10-10/12\7--7-7-7-7-7-7-7--2-2-2-2-2-2/4--2-2-2-2-2-2-2--|
D|--10-10-10--10-10/12\7--7-7-7-7-7-7-7-----------------0-0-0-0-0-0-0--|
A|---------------------------------------------------------------------|
E|---------------------------------------------------------------------|

e|--1-1-1/3-3-2-2-2-2-2-2-2--|
B|--1-1-1/3-3-3-3-3-3-3-3-3--|
G|--2-2-2/4-4-2-2-2-2-2-2-2--|
D|------------0-0-0-0-0-0-0--|
A|---------------------------|
E|---------------------------|


Verses:
(repeat til' chorus)
e|----------------------------------------------------|
B|--5-5-5--3-3-3-3-3-3-3-3--7-7-7-7--5-5-5-5-5-5-5-5--|
G|--7-7-7--5-5-5-5-5-5-5-5--9-9-9-9--7-7-7-7-7-7-7-7--|
D|--7-7-7--5-5-5-5-5-5-5-5--9-9-9-9--7-7-7-7-7-7-7-7--|
A|--5-5-5--3-3-3-3-3-3-3-3--7-7-7-7--5-5-5-5-5-5-5-5--|
E|----------------------------------------------------|


Chorus:

e|----------------------------------------|
B|----------------------------------------|
G|--------------0-2-3-5-7-9h11--11-12-11--|
D|--------0-2-3---------------------------|
A|--0-2-3---------------------------------|
E|----------------------------------------|

e|----------------------------------------------------|
B|--5-5-5--3-3-3-3-3-3-3-3--7-7-7-7--5-5-5-5-5-5-5-5--|
G|--7-7-7--5-5-5-5-5-5-5-5--9-9-9-9--7-7-7-7-7-7-7-7--|
D|--7-7-7--5-5-5-5-5-5-5-5--9-9-9-9--7-7-7-7-7-7-7-7--|
A|--5-5-5--3-3-3-3-3-3-3-3--7-7-7-7--5-5-5-5-5-5-5-5--|
E|----------------------------------------------------|

e|----------------------------------------|
B|----------------------------------------|
G|--------------0-2-3-5-7-9h11--11-12-11--|
D|--------0-2-3---------------------------|
A|--0-2-3---------------------------------|
E|----------------------------------------|

e|----------------------------------------------------|
B|--5-5-5--3-3-3-3-3-3-3-3--7-7-7-7--5-5-5-5-5-5-5-5--|
G|--7-7-7--5-5-5-5-5-5-5-5--9-9-9-9--7-7-7-7-7-7-7-7--|
D|--7-7-7--5-5-5-5-5-5-5-5--9-9-9-9--7-7-7-7-7-7-7-7--|
A|--5-5-5--3-3-3-3-3-3-3-3--7-7-7-7--5-5-5-5-5-5-5-5--|
E|----------------------------------------------------|
            
Tabs too difficult? Try these video lessons and learn fast.


comments powered by Disqus
↑ Back to top | Tablatures and chords are parodies/interpretations of the original songs. You may use it for private study, scholarship, research or language learning purposes only