» » »

Radiohead, My Iron Lung Bass tabs (ver.2)

Artists:  A B C D E F G H I J K L M N O P Q R S T U V W X Y Z # 

My Iron Lung Bass tabs (ver.2)

Radiohead Tabs
Rating:
0/5 (0 votes)
My Iron Lung lessons Tabs too difficult? Try these video lessons and learn fast
                MY IRON LUNG - RADIOHEAD

AWESOME SONG
EASY TAB
(Y)

G|----------------|----------------------|
D|----------------|----------------------|			VERSE A
A|----------------|-3-3-3-3-3-3-3--------|
E|-3-3-3-3-3-3-3-3|---------------0------|

G|----------------|----------------------|
D|----------------|----------------------|			VERSE B
A|----------------|-3-3-5-5-6-6-8-8s-----|
E|-3-3-3-3-3-3-3-3|----------------------|

G|----------------|----------------------|
D|----------------|----------------------|			VERSE A
A|----------------|-3-3-3-3-3-3-3--------|
E|-3-3-3-3-3-3-3-3|---------------0------|

G|----------------|----------------------|
D|----------------|----------------------|			VERSE A
A|----------------|-3-3-3-3-3-3-3--------|
E|-3-3-3-3-3-3-3-3|---------------0------|

G|----------------|----------------------|
D|----------------|----------------------|			VERSE A
A|----------------|-3-3-3-3-3-3-3--------|
E|-3-3-3-3-3-3-3-3|---------------0------|

G|----------------|----5---7---8---10----|
D|----------------|----------------------|			VERSE C
A|----------------|-3---5---6----8-----7s|
E|-3-3-3-3-3-3-3-3|----------------------|

G|----------------|----------------------|
D|----------------|----------------------|			VERSE A
A|----------------|-3-3-3-3-3-3-3--------|
E|-3-3-3-3-3-3-3-3|---------------0------|

G|----------------|----------------------|
D|----------------|----------------------|			VERSE A
A|----------------|-3-3-3-3-3-3-3--------|
E|-3-3-3-3-3-3-3-3|---------------0------|

G|----------------|----------------------|
D|----------------|----------------------|			VERSE A
A|----------------|-3-3-3-3-3-3-3--------|
E|-3-3-3-3-3-3-3-3|---------------0------|

G|----------------|----------------------|
D|----------------|----------------------|			VERSE B
A|----------------|-3-3-5-5-6-6-8-8s-----|
E|-3-3-3-3-3-3-3-3|----------------------|

G|----------------|----------------------|
D|----------------|----------------------|			VERSE A
A|----------------|-3-3-3-3-3-3-3--------|
E|-3-3-3-3-3-3-3-3|---------------0------|

G|----------------|----------------------|
D|----------------|----------------------|			VERSE B
A|----------------|-3-3-5-5-6-6-8-8s-----|
E|-3-3-3-3-3-3-3-3|----------------------|

G|----------------|----------------------|
D|----------------|----------------------|			VERSE A
A|----------------|-3-3-3-3-3-3-3--------|
E|-3-3-3-3-3-3-3-3|---------------0------|

G|----------------|----------------------|
D|----------------|----------------------|			VERSE A
A|----------------|-3-3-3-3-3-3-3--------|
E|-3-3-3-3-3-3-3-3|---------------0------|

G|----------------|----------------------|
D|----------------|----------------------|			VERSE A
A|----------------|-3-3-3-3-3-3-3--------|
E|-3-3-3-3-3-3-3-3|---------------0------|

G|----------------|----5---7---8---10----|
D|----------------|----------------------|			VERSE C
A|----------------|-3---5---6----8-----7s|
E|-3-3-3-3-3-3-3-3|----------------------|

G|----------------|----------------------|
D|----------------|----------------------|			VERSE A
A|----------------|-3-3-3-3-3-3-3--------|
E|-3-3-3-3-3-3-3-3|---------------0------|

G|----------------|----------------------|
D|----------------|----------------------|			VERSE A
A|----------------|-3-3-3-3-3-3-3--------|
E|-3-3-3-3-3-3-3-3|---------------0------|

G|----------------|----------------------|
D|----------------|----------------------|			VERSE A
A|----------------|-3-3-3-3-3-3-3--------|
E|-3-3-3-3-3-3-3-3|---------------0------|

G|----------------|----------------------|
D|----------------|----------------------|			VERSE B
A|----------------|-3-3-5-5-6-6-8-8s-----|
E|-3-3-3-3-3-3-3-3|----------------------|

G|----------------|----------------------|
D|----------------|----------------------|			VERSE A
A|----------------|-3-3-3-3-3-3-3--------|
E|-3-3-3-3-3-3-3-3|---------------0------|

G|----------------|----------------------|
D|----------------|5--4--3--2--1---0-----|			PRE-CHORUS
A|----------------|----------------------|
E|-3-3-3-3-3-3-3-3|----------------------|

G|--------------|-----5-----5-|------------------------------|
D|-----5------5-|-------------|------------------------------|	CHORUS
A|--------------|-3-3---3-3---|-----7-----7--10-9-8-7--6--5--|
E|-3-3----3-3---|-------------|-0-0---0-0--------------------|

G|--------------|-----5-----5-|------------------------------|
D|-----5------5-|-------------|------------------------------|	CHORUS
A|--------------|-3-3---3-3---|-----7-----7--10-9-8-7--6--5--|
E|-3-3----3-3---|-------------|-0-0---0-0--------------------|



BREAK



G|----------------|----------------------|
D|----------------|----------------------|			VERSE A
A|----------------|-3-3-3-3-3-3-3--------|
E|-3-3-3-3-3-3-3-3|---------------0------|

G|----------------|----------------------|
D|----------------|----------------------|			VERSE A
A|----------------|-3-3-3-3-3-3-3--------|
E|-3-3-3-3-3-3-3-3|---------------0------|

G|----------------|----------------------|
D|----------------|----------------------|			VERSE A
A|----------------|-3-3-3-3-3-3-3--------|
E|-3-3-3-3-3-3-3-3|---------------0------|

G|----------------|----5---7---8---10----|
D|----------------|----------------------|			VERSE C
A|----------------|-3---5---6----8-----7s|
E|-3-3-3-3-3-3-3-3|----------------------|

G|----------------|----------------------|
D|----------------|----------------------|			VERSE A
A|----------------|-3-3-3-3-3-3-3--------|
E|-3-3-3-3-3-3-3-3|---------------0------|

G|----------------|----------------------|
D|----------------|----------------------|			VERSE A
A|----------------|-3-3-3-3-3-3-3--------|
E|-3-3-3-3-3-3-3-3|---------------0------|

G|----------------|----------------------|
D|----------------|----------------------|			VERSE A
A|----------------|-3-3-3-3-3-3-3--------|
E|-3-3-3-3-3-3-3-3|---------------0------|

G|----------------|----5---7---8---10----|
D|----------------|----------------------|			VERSE C
A|----------------|-3---5---6----8-----7s|
E|-3-3-3-3-3-3-3-3|----------------------|

G|----------------|----------------------|
D|----------------|----------------------|			VERSE A
A|----------------|-3-3-3-3-3-3-3--------|
E|-3-3-3-3-3-3-3-3|---------------0------|

G|----------------|----------------------|
D|----------------|----------------------|			VERSE A
A|----------------|-3-3-3-3-3-3-3--------|
E|-3-3-3-3-3-3-3-3|---------------0------|

G|----------------|----------------------|
D|----------------|----------------------|			VERSE A
A|----------------|-3-3-3-3-3-3-3--------|
E|-3-3-3-3-3-3-3-3|---------------0------|

G|----------------|----------------------|
D|----------------|5--4--3--2--1---0-----|			PRE-CHORUS
A|----------------|----------------------|
E|-3-3-3-3-3-3-3-3|----------------------|

G|--------------|-----5-----5-|------------------------------|
D|-----5------5-|-------------|------------------------------|	CHORUS
A|--------------|-3-3---3-3---|-----7-----7--10-9-8-7--6--5--|
E|-3-3----3-3---|-------------|-0-0---0-0--------------------|

G|--------------|-----5-----5-|------------------------------|
D|-----5------5-|-------------|------------------------------|	CHORUS
A|--------------|-3-3---3-3---|-----7-----7--10-9-8-7--6--5--|
E|-3-3----3-3---|-------------|-0-0---0-0--------------------|

G|--------------|-----5-----5-|------------------------------|
D|-----5------5-|-------------|------------------------------|	CHORUS
A|--------------|-3-3---3-3---|-----7-----7--10-9-8-7--6--5--|
E|-3-3----3-3---|-------------|-0-0---0-0--------------------|

G|--------------|-----5-----5-|------------------------------|
D|-----5------5-|-------------|------------------------------|	CHORUS
A|--------------|-3-3---3-3---|-----7-----7--10-9-8-7--6--5--|
E|-3-3----3-3---|-------------|-0-0---0-0--------------------|



BREAK



G|----------------------|
D|5--4--3--2--1---0-----|				LAST ½ OF PRE-CHORUS
A|----------------------|
E|----------------------|

G|--------------|-----5-----5-|------------------------------|
D|-----5------5-|-------------|------------------------------|	CHORUS
A|--------------|-3-3---3-3---|-----7-----7--10-9-8-7--6--5--|
E|-3-3----3-3---|-------------|-0-0---0-0--------------------|


REPEAT CHORUS UNTIL END.............
            
Submit corrections

comments powered by Disqus
↑ Back to top | Radiohead Bass for My Iron Lung. Lyrics for acoustic guitar and electric guitar. Tablatures and chords are parodies/interpretations of the original songs. You may use it for private study, scholarship, research or language learning purposes only