» » »

My Iron Lung Tabs (ver.3)

Artists:  A B C D E F G H I J K L M N O P Q R S T U V W X Y Z # 

My Iron Lung Tabs (ver.3)

Radiohead
Rating:
0/5 (0 votes)
Tabs too difficult? Try these video lessons and learn fast.
                ok saw some other tabs 'n' thought they were quite weak, ive been writing a few tabs and this for ages 
and i am pretty close i thinK, this is my best tab.
its only the very begining
:the song would take to long to tab fully! and i havent the time to tab it. got gcse's soon!
i hope it's of any use!

E/----------------- ------------------ ---------------- ---------------
B/------------3--0- ---------0-------- --------1------- ---------------
G/--------0-------- -------0-----0---- -----0---------- ---2-3-2-0-----
D/----------------- ----3------------- ---1--------1--- ---------------
A/----------------- ------------------ ---------------- ---------------
e/--3-------------- ------------------ ---------------- ---------------

E/----------------- ------------------ --------------- ----------------
B/------------3--0- ------------0----- ----------1---- --------4-------
G/--------0-------- ---------0-----0-- ------ 2-----2- -----5------5---
D/----------------- ------3----------- ----1---------- ---4------------
A/----------------- ------------------ --------------- ----------------
e/--3-------------- ------------------ --------------- ----------------

E/----------------- ------------------ --------------- ----------------
A/------------3--0- ------------0----- --------1--3--- --4--3---1------
D/--------0-------- ---------0-----0-- ----0---------- ----------------
G/----------------- ------3----------- -1------------- ----------------
B/----------------- ------------------ --------------- ----------------
e/--3-------------- ------------------ --------------- ----------------

E/----------------- ------------------ ---------------- ---------------
B/------------3--0- ---------0-------- --------1------- ---------------
G/--------0-------- -------0-----0---- -----0---------- ---2-3-2-0-----
D/----------------- ----3------------- ---1--------1--- ---------------
A/----------------- ------------------ ---------------- ---------------
e/--3-------------- ------------------ ---------------- ---------------

E/----------------- ------------------
A/-0--------------- -0----------------
D/----------------- ------------------ x2
G/----------------- ------------------
B/----------------- ------------------
e/----------------- ------------------

E/----------------- ----------------------- ---------------    -------------
A/----------------- ----------------------- ---------------    -4---4-------
D/-------4--4------ ---------5--5---------- -------3------- x1 ---7---7----- x2
G/-----5----------- ------5--------5------- -----0---------    -------------
B/---5-----------5- --6------------------5- ---5-----------    -------------
e/-3--------------- 3---------------------- -3-------------    -------------

Thats all i can do - gets too comlicated for me!!!

please rate - ive tried sooo hard with this - probably failed my mock gcse's coz of it!!!
            
Tabs too difficult? Try these video lessons and learn fast.


comments powered by Disqus
↑ Back to top | Tablatures and chords are parodies/interpretations of the original songs. You may use it for private study, scholarship, research or language learning purposes only