» » »

Radiohead, Lotus Flower Bass tabs (ver.3)

Artists:  A B C D E F G H I J K L M N O P Q R S T U V W X Y Z # 

Lotus Flower Bass tabs (ver.3)

Radiohead Tabs
 Rating:
4/5 (4 votes)
Lotus Flower lessons Tabs too difficult? Try these video lessons and learn fast
1
                So the new Radiohead album The King of Limbs came out and I was looking for a bass
while reading through the description he said that he got the song by ear but that it
had his own little parts to the tabs. They sound good overall though so I decided to
look at his video and see what I could figure out from it and here's the result.



(couldn't put his video here without getting permission first so there is the link to
the cover)


Key:
~ = Let Ring
P = Pop

Intro

G-------------------------------------------|            Repeat 2 times
D -0~-----------3---------------3-5------3--|
A -----------------3------------------------|
E ------------------------------------------|

Part 2

G ----------P0--P4--------------------P0—P4-------------------------------|          
D –--3--------------3—0-----0-------------------5---0-----3—0------3--0---|
A ----3----------------------3--------------------------------------------|
E ------------------------------------------------------------------------|

Part 3

G --------------------------------------------|
D --3-0---3-----0-------3----0--3----0--3-----|
A -------------3-----------3--------3-------3-|
E---------------------------------------------|

G ----------------------------------------------|
D -0--3---0--3----0--3----0--3------------------|
A ------3-------3-------3--------3--------------|
E ----------------------------------------------|

*First Time Around
G----------------------------------------|      
D -5--2-3--5--2-3--3--0-----3--0---------|                                    
A --------------------------3---------3--|                                 
E----------------------------------------|          

*Second Time
G---------------------------------------------|
D -5--2-3--5--2-3--3--0-------3-0-------0-----|
A---------------------------3-------3------3--|
E---------------------------------------------|


Part 4

G ----------------------------------------|
D --0—373—0-0--373--0-0--373--0-0--373—0--|
A ----------------------------------------|
E ----------------------------------------|

G ----------------------------------------|
D --2 --232--2-5—232--2-0--373—0-0--373-0-|
A ----------------------------------------|
E ----------------------------------------|




This is basically the layout of the song from what I got of this dudes video, If you
need help getting the rhythm just try following the video. Btw, I noticed that he
doesn't use any effects on his bass but ohh well, better than nothing :P All the
credit goes to Joel1524.

Good luck!
            
Submit corrections

comments powered by Disqus
↑ Back to top | Radiohead Bass for Lotus Flower. Lyrics for acoustic guitar and electric guitar. 1 Tablatures and chords are parodies/interpretations of the original songs. You may use it for private study, scholarship, research or language learning purposes only