>
 >
Lotus Flower 3

Lotus Flower 3 Bass Tabs

Radiohead - Lotus Flower 3 chords, tabs, tablatures, lyrics

Guitar lessons | Add/correct | Request | Top 50 tabs Artists:  A B C D E F G H I J K L M N O P Q R S T U V W X Y Z 0-9

Lotus Flower 3 Bass Tabs – Radiohead

CD, Sheet music, Poster

Do you like Lotus Flower 3? Share with your friends now
Bass TabsBass Tabs v2Bass Tabs v3Bass Tabs v4ChordsTabsTabs v2Tabs v3Ukulele
So the new Radiohead album The King of Limbs came out and I was looking for a bass
while reading through the description he said that he got the song by ear but that it
had his own little parts to the tabs. They sound good overall though so I decided to
look at his video and see what I could figure out from it and here's the result.



(couldn't put his video here without getting permission first so there is the link to
the cover)


Key:
~ = Let Ring
P = Pop

Intro

G-------------------------------------------|            Repeat 2 times
D -0~-----------3---------------3-5------3--|
A -----------------3------------------------|
E ------------------------------------------|

Part 2

G ----------P0--P4--------------------P0P4-------------------------------|          
D --3--------------30-----0-------------------5---0-----30------3--0---|
A ----3----------------------3--------------------------------------------|
E ------------------------------------------------------------------------|

Part 3

G --------------------------------------------|
D --3-0---3-----0-------3----0--3----0--3-----|
A -------------3-----------3--------3-------3-|
E---------------------------------------------|

G ----------------------------------------------|
D -0--3---0--3----0--3----0--3------------------|
A ------3-------3-------3--------3--------------|
E ----------------------------------------------|

*First Time Around
G----------------------------------------|      
D -5--2-3--5--2-3--3--0-----3--0---------|                                    
A --------------------------3---------3--|                                 
E----------------------------------------|          

*Second Time
G---------------------------------------------|
D -5--2-3--5--2-3--3--0-------3-0-------0-----|
A---------------------------3-------3------3--|
E---------------------------------------------|


Part 4

G ----------------------------------------|
D --03730-0--373--0-0--373--0-0--3730--|
A ----------------------------------------|
E ----------------------------------------|

G ----------------------------------------|
D --2 --232--2-5232--2-0--3730-0--373-0-|
A ----------------------------------------|
E ----------------------------------------|




This is basically the layout of the song from what I got of this dudes video, If you
need help getting the rhythm just try following the video. Btw, I noticed that he
doesn't use any effects on his bass but ohh well, better than nothing :P All the
credit goes to Joel1524.

Good luck!





Comments


Popular Radiohead tabs & chords
Go To Sleep Bass Tabs
I Might Be Wrong 2 Bass Tabs
Idioteque Chords
2 + 2 = 5 2 Tabs
Creep 2 Tabs
Faust Arp 1 Tabs
Go Slowly Tabs
Karm Police Tabs
There There Tabs
True Love Waits Tabs


Song lyrics



↑ Back to top | Tablatures and chords are parodies/interpretations of the original songs. You may use it for private study, scholarship, research or language learning purposes only
© 2014 AZChords.com Contact us | Privacy policy | DMCA | Add/correct tabs | Request tabs | Top 50 tabs