» » »

Radiohead, Lotus Flower Bass tabs (ver.2)

Artists:  A B C D E F G H I J K L M N O P Q R S T U V W X Y Z # 

Lotus Flower Bass tabs (ver.2)

Radiohead Tabs
 Rating:
4/5 (4 votes)
Lotus Flower lessons Tabs too difficult? Try these video lessons and learn fast
1
                -------------------------------------------------------------------------------
			     LOTUS FLOWER - Radiohead
-------------------------------------------------------------------------------

I think this is pretty accurate. Any inaccuracies should be easily fixed by filling in 
what you know based on this tab.

Intro
G|-----------------------------------------|
D|------------3------------3-5~----3-------|
A|-5~-----------3~-------------------5~----|  x2
E|-----------------------------------------|

G|---------------------------4~------------|
D|------------3------------3-------3-------|
A|-5~-----------3~-------------------5~----|
E|-----------------------------------------|

G|--------------4~----------------------------|
D|------------3-----------------------3-------|
A|-3-5~--------------------3-5~---------5~----|
E|--------------------------------------------|

G|--------------|
D|-3------------|
A|---5~-------3-|
E|--------------|

Verse - Listen to timing.
G|-----------------|
D|----3-------3----|
A|-5----3--5----3--| repeat
E|-----------------|

'...to what you want'
G|------------------------------------------|
D|-5----2-3---5----2-3------3-------3-------|
A|-----------------------------5-3-----5-3--|
E|------------------------------------------|


chorus
G|----------------------------------------------------|
D|-----3---------3----2-3---5--2-3--5-----3------3----|
A|-5-----3---5-----3-------------------5----3-5----3--|
E|----------------------------------------------------|

G|----------------------------------------------------|
D|-----3---------3----5--2-3-5--2-3-------3------3----|
A|-5-----3---5-----3-------------------5----3-5----3--|
E|----------------------------------------------------|
            
Submit corrections

comments powered by Disqus
↑ Back to top | Radiohead Bass for Lotus Flower. Lyrics for acoustic guitar and electric guitar. 1 Tablatures and chords are parodies/interpretations of the original songs. You may use it for private study, scholarship, research or language learning purposes only