» » »

Radiohead, House Of Cards Tabs (ver.3)

Artists:  A B C D E F G H I J K L M N O P Q R S T U V W X Y Z # 

House Of Cards Tabs (ver.3)

Radiohead Tabs
Rating:
0/5 (0 votes)
House Of Cards lessons Tabs too difficult? Try these video lessons and learn fast
                Drop D, capo on 3rd fret

e|----------------------------------------------------------------------------------|
b|----------------------------------------------------------------------------------|
g|-7-7-7-9-9-9-7-7-7----2-2-2-2-2-2-------2-2-2-2-2-2-------7-7-7-9-9-9-7-7-7-------|
d|-0-0-0-0-0-0-0-0-0----2-2-2-2-2-2-------2-2-2-2-2-2-------0-0-0-0-0-0-0-0-0-------|
a|-9-9-9-9-9-9-9-9-9----2-2-2-2-2-2-------2-2-2-2-2-2-------9-9-9-9-9-9-9-9-9-------|
d|-0-0-0-0-0-0-0-0-0----2-2-2-2-0-0-9-12--2-2-2-2-0-0-9-12-0-0-0-0-0-0-0-0-0--------|
             (various rhythms) Ooooooooooooohooooooooh... Ooooohoooooo......


e|---------------------------------------------------------------------------------|
b|---------------------------------------------------------------------------------|
g|-7-7-7-9-9-9-7-7-7-9-9-9-7-7-7------5-5-5-5-5-5-5-5-5-5-4-4-7-7-7-7-9-9-9-7-7----|
d|-0-0-0-0-0-0-0-0-0-0-0-0-0-0-0------0-0-0-0-0-0-0-0-0-0-0-0-0-0-0-0-0-0-0-0-0----|
a|-9-9-9-9-9-9-9-9-9-9-9-9-9-9-9-------------------------------9-9-9-9-9-9-9-9-9---|
d|-0-0-0-0-0-0-0-0-0-0-0-0-0-0-0------5-5-5-5-5-5-5-5-5-5-5-5-0-0-0-0-0-0-0-0-0----|
     I dont want yo be your friend...                                   I just want to be your lover....
    No matter how it ends...                                              No matter how 
starts.... (all verses)


e|----------------------------------------------------------------------------------|
b|----------------------------------------------------------------------------------|
g|---5-5-5-5-4-4-5-5-5-5-4-4-5-5-5-4-4-7-7-7-7-9-9-9-7-7-7--------------------------|
d|---0-0-0-0-0-0-0-0-0-0-0-0-0-0-0-0-0-0-0-0-0-0-0-0-0-0-0--------------------------|
a|---------------------------------------9-9-9-9-9-9-9-9-9-9------------------------|
d|---5-5-5-5-5-5-5-5-5-5-5-5-5-5-5-5-5-0-0-0-0-0-0-0-0-0-0--------------------------|
                       Fall of the table... and get swept under....

e|---------------------------------------------------------------------------------|
b|---------------------------------------------------------------------------------|
g|----2-2-2-2-2-2-------2-2-2-2-2-2-------7-7-7-9-9-9-7-7-7-7-7-2-2-2-2-2----------|
d|----2-2-2-2-2-2-------2-2-2-2-2-2-------0-0-0-0-0-0-0-0-0-0-0-2-2-2-2-2----------|
a|----2-2-2-2-2-2-------2-2-2-2-2-2-------9-9-9-9-9-9-9-9-9-9-9-2-2-2-2-2----------|
d|----2-2-2-2-0-0-9-12-2-2-2-2-0-0-9-12-0-0-0-0-0-0-0-0-0-0-0-2-2-2-2-2------------|
Oooooooooh... denial....denial ... your ears should be burning (repeat)

etc.
            
Submit corrections

comments powered by Disqus
↑ Back to top | Radiohead Tabs for House Of Cards. Lyrics for acoustic guitar and electric guitar. Tablatures and chords are parodies/interpretations of the original songs. You may use it for private study, scholarship, research or language learning purposes only