» » »

House Of Cards Tabs (ver.2)

Artists:  A B C D E F G H I J K L M N O P Q R S T U V W X Y Z # 

House Of Cards Tabs (ver.2)

Radiohead
Rating:
0/5 (0 votes)

Hard to play? Try these video lessons and learn fast.
                House of Cards - Radiohead

These parts are repeated throughout the song:

e|-----------------------|
B|-----------------------|
D|-12-12---12---12-------|
G|-10-10---10---10-------|
A|-12-12---12---12--10-8-|
E|-----------------------|x2

e|-----------------------|
B|-----------------------|
D|-10-10---10---10-------|
G|--8--8----8----8-------|
A|-10-10---10---10--10-8-|
E|-----------------------|x2

e|------------------|
B|------------------|
D|-7-7---7---7/9-10-|
G|-5-5---5---5/7--8-|
A|-7-7---7---7/9-10-|
E|------------------|x2


The bass-ish parts:

e|--------------|-----------|
B|--------------|-----------|
D|--------------|-----------|
G|--------------|-----------|
A|-3-5t/8-3-5t~-|-3-5t/8-3r-|
E|--------------|-----------|


That part at 2:59 (not sure, though):

e|----------|
B|------6b~-|
D|----------|
G|-7-7b-----|
A|----------|
E|----------|
            
Hard to play? Try these video lessons and learn fast. | Correct




comments powered by Disqus
↑ Back to top | Tablatures and chords are parodies/interpretations of the original songs. You may use it for private study, scholarship, research or language learning purposes only