>
 >
Gagging Order 2

Gagging Order 2 Guitar Tabs

Radiohead - Gagging Order 2 chords, tabs, tablatures, lyrics

Guitar lessons | Add/correct | Request | Top 50 tabs Artists:  A B C D E F G H I J K L M N O P Q R S T U V W X Y Z 0-9

Gagging Order 2 Guitar Tabs – Radiohead

CD, Sheet music, Poster

Do you like Gagging Order 2? Share with your friends now
TabsTabs v2Tabs v3
Radiohead's Gagging Order TAB.

TUNING:  DROP D TUNING with a capo on the 1st Fret



INTRO:

E||----------------------------------------------------------------------------------------|
B||-----2--------------3p2----5-------3h2---------------2------3p2-----5p2-----2-----2-----|
G||-----2-----2--------2---2--2----2--2-----------2-----2------2----2---2------2--2--2-----|
D||--2--------2--2---------2-------2---------2----2--------2--------2-------2-----2--------|
A||--0-----------0---------------------------0----0--------0--------0-------0--------------|
D||----------------------------------------------------------------------------------------|

										    (fast)
E||----------------------------------------------------------------------------------------|
B||-----------2-------------------2--------------------2---------2----------2----------0h2-|
G||-----------2--2-----2----------2--2-----------------2---2-----2----2-----2----------0h2-|
D||------------------------------------------------------------------------------2h4p0-0h2-|
A||------------------------------------------------------------------------------------0---|
D||--2/4----4-------4------4---4---------4---4-----4-----------4----4---4------------------|


E||------------------------------------------------------------------------------------------|
B||--------2------3p2-----5p2-----3p2------------2----------2----------------2---------------|
G||--2-----2------2----2---2------2-----2--2--2--2---2----2-2--2---2---------2--2----2-------|
D||--2---------2-------2-------2--------2--2--2------2-2--2----2-2-2-------------------------|
A||--0---------0-------0-------0--------0--0-----------0---------0---------------------------|
D||------------------------------------------------------------------2/4--4-------4----4--4--|

									       (fast)
E||----------------------------------------------------------------------------------------|
B||---2------------------2--2------2-------2-----2------2---------2-2-------------0h2------|
G||---2--2---2-----------2--2--2-----2--------2--2-2----2--2----2---2--2----------0h2------|
D||-------------------------------------------------------------------------2h4p0-0h2------|
A||-------------------------------------------------------------------------------0--------|
D||--------4------4---4----------4-------4---4-4------4-----4--------4---------------------|


					              I know what your
E||---------------------------------------------------------------------------|
B||----------2---3p2----5p2----3h2------2-----------------------2-------------|
G||--2--2----2---2---2--2---2--2--------2----2-----2---2-----2--2---2---2-----|
D||--2--2------2-----2------2--------2--2----2--2--2---2--2--2--2---2---2-----|
A||--0--0------0---------------------0--0-------0---------0-----0---0---0-----|
D||---------------------------------------------------------------------------|


    ..thinking  				      but im not your property
E||---------------------------------------------------------------------------|
B||-------2-----------------2----------------2--------2--------2----------2---|
G||-------2--2---2----------2--2---2----2----2--2-----2----2---2--2-------2---|
D||---------------------------------------------------------------------------|
A||---------------------------------------------------------------------------|
D||-4--4-------4-----4---4-------4---4---4---------4-----4---4------4----4----|


   ...propery					 no matter what you say
E||---------------------------------------------------------------------------|
B||----------2---3p2----5p2----3h2-----------2------3p2----5----2-----2-------|
G||-0h2-2----2---2---2--2---2--2-------------2------2---2--2----2--2--2-------|
D||-0h2-2------2-----2------2---------2--2------2-------2----------2----------|
A||-0---0------0----------------------0---------0-----------------------------|
D||---------------------------------------------------------------------------|


    ...say	          			 no matter what you say
E||---------------------------------------------------------------------------|
B||-------2-----------------5----------------2--------2--------2----------2---|
G||-------2--2---2----------2--2---2----2----2--2-----2----2---2--2-------2---|
D||---------------------------------------------------------------------------|
A||---------------------------------------------------------------------------|
D||-4--4------4-----4--/4-------4---4---4---------4------4----4---4----4------|


    ...say							Move along..
E||---------------------------------------------------------------------------|
B||----------2---3p2----5p2----3h2-----------2------3p2----5----2-----2-------|
G||-0h2-2----2---2---2--2---2--2-------------2------2---2--2----2--2--2-------|
D||-0h2-2------2-----2------2---------2--2------2-------2----------2----------|
A||-0---0------0----------------------0---------0-----------------------------|
D||---------------------------------------------------------------------------|


   ...along						theres nothing..
E||---------------------------------------------------------------------------|
B||----------2---------------2----------------------------------2-------------|
G||----------2--2---2--------2--2---2-------2--2----------------2-------------|
D||-------------2---2-----------------------------0---0-----------------------|
A||-------------------------------------------------------5---5---5---5/------|
D||--2/4--4-------4-----2--2------2----0--0---------0-------------------------|


   ...see						  just a...
E||---------------------------------------------------------------------------|
B||---------2---3p2----5p2----3h2-----------2------3p2----5----2-----2--------|
G||-2--2----2---2---2--2---2--2-------------2------2---2--2----2--2--2--------|
D||-2--2------2-----2------2---------2--2------2-------2----------2-----------|
A||-0--0------0----------------------0---------0------------------------------|
D||---------------------------------------------------------------------------|


   ...body						nothing left to...
E||---------------------------------------------------------------------------|
B||----------2---------------2----------------------------------2-------------|
G||----------2--2---2--------2--2---2-------2--2----------------2-------------|
D||-------------2---2-----------------------------0---0-----------------------|
A||-------------------------------------------------------5---5---5---5/------|
D||--2/4--4-------4-----2--2------2----0--0---------0-------------------------|


   ...see
E||---------------------------------------------------------------------------|
B||----------2---3p2----5p2----3h2-----------2------3p2----5p2-----3p2--------|
G||-2--2-----2---2---2--2---2--2-------------2------2---2--2----2--2---2------|
D||-2--2-------2-----2------2---------2--2------2-------2-------2-------------|
A||-0--0-------0----------------------0--0------0-----------------------------|
D||---------------------------------------------------------------------------|


E||---------------------------------------------------------------------------|
B||-------2-----------------2----------------2--------2--------2----------2---|
G||-------2--2---2----------2--2---2----2----2--2-----2----2---2--2-------2---|
D||---------------------------------------------------------------------------|
A||---------------------------------------------------------------------------|
D||-2/4-4------4-----4---4-------4---4---4---------4------4----4---4-----4----|

							a couple...


E||---------------------------------------------------------------------------|
B||----------2---3p2----5p2----3h2-----------2------3p2----5----2-----2-------|
G||-2---2----2---2---2--2---2--2-------------2------2---2--2----2--2--2-------|
D||-2---2------2-----2------2---------2--2------2-------2----------2----------|
A||-0---0------0----------------------0---------0-----------------------------|
D||---------------------------------------------------------------------------|

    ...breakfast					a little more..
E||---------------------------------------------------------------------------|
B||-------------------------2----------------2--------2--------2----------2---|
G||-------2--2---2----------2--2---2----2----2--2-----2----2---2--2-------2---|
D||---------------------------------------------------------------------------|
A||---------------------------------------------------------------------------|
D||-4--4-------4-----4---4-------4---4---4---------4-----4---4------4----4----|


    ...tea						just to take..
E||---------------------------------------------------------------------------|
B||----------2---3p2----5p2----3h2-----------2------3p2----5----2-----2-------|
G||-0h2-2----2---2---2--2---2--2-------------2------2---2--2----2--2--2-------|
D||-0h2-2------2-----2------2---------2--2------2-------2----------2----------|
A||-0---0------0----------------------0---------0-----------------------------|
D||---------------------------------------------------------------------------|

    edge off						just to take the ed..
E||---------------------------------------------------------------------------|
B||-------------------------2----------------2--------2--------2----------2---|
G||-------2--2---2----------2--2---2----2----2--2-----2----2---2--2-------2---|
D||---------------------------------------------------------------------------|
A||---------------------------------------------------------------------------|
D||-4--4-------4-----4---4-------4---4---4---------4-----4---4------4----4----|


   ..off					  		move..
E||---------------------------------------------------------------------------|
B||----------2---3p2----5p2----3h2-----------2------3p2----5----2-----2-------|
G||-0h2-2----2---2---2--2---2--2-------------2------2---2--2----2--2--2-------|
D||-0h2-2------2-----2------2---------2--2------2-------2----------2----------|
A||-0---0------0----------------------0---------0-----------------------------|
D||---------------------------------------------------------------------------|

   ...along						theres nothing..
E||---------------------------------------------------------------------------|
B||----------2---------------2----------------------------------2-------------|
G||----------2--2---2--------2--2---2-------2--2----------------2-------------|
D||-------------2---2-----------------------------0---0-----------------------|
A||-----------------------------------------------------------5---5---5/------|
D||--2/4--4-------4-----2--2------2----0--0---------0-------------------------|


   ...see						  just a...
E||---------------------------------------------------------------------------|
B||----------2---3p2----5p2----3h2-----------2------3p2----5----2-----2-------|
G||-2-2------2---2---2--2---2--2-------------2------2---2--2----2--2--2-------|
D||-2-2--------2-----2------2---------2--2------2-------2----------2----------|
A||-0-0--------0----------------------0--0------0-----------------------------|
D||---------------------------------------------------------------------------|


   ...body						pouring down..
E||---------------------------------------------------------------------------|
B||----------2---------------2----------------------------------2-------------|
G||----------2--2---2--------2--2---2-------2--2----------------2-------------|
D||-------------2---2-----------------------------0---0-----------------------|
A||-------------------------------------------------------5---5---5---5/------|
D||--2/4--4-------4-----2--2------2----0--0---------0-------------------------|

   ...street							move along...
E||---------------------------------------------------------------------------|
B||----------2---3p2----5p2----3h2-----------2------3p2----5----2-----2-------|
G||-0h2-2----2---2---2--2---2--2-------------2------2---2--2----2--2--2-------|
D||-0h2-2------2-----2------2---------2--2------2-------2----------2----------|
A||-0---0------0----------------------0---------0-----------------------------|
D||---------------------------------------------------------------------------|


   ...along						theres nothing..
E||---------------------------------------------------------------------------|
B||----------2---------------2--------------2-------------------2-------------|
G||----------2--2---2--------2--2---2-------2--2----------------2-------------|
D||-------------2---2-----------------------------0---0-----------------------|
A||-------------------------------------------------------5---5---5---5/------|
D||--2/4--4-------4-----2--2------2----0--0---------0-------------------------|


   ...see						  just a...
E||---------------------------------------------------------------------------|
B||----------2---3p2----5p2----3h2-----------2------3p2----5----2-----2-------|
G||-0h2-2----2---2---2--2---2--2-------------2------2---2--2----2--2--2-------|
D||-0h2-2------2-----2------2---------2--2------2-------2----------2----------|
A||-0---0------0----------------------0---------0-----------------------------|
D||---------------------------------------------------------------------------|


   ...body						nothing left to...
E||---------------------------------------------------------------------------|
B||----------2---------------2----------------------------------2-------------|
G||----------2--2---2--------2--2---2-------2--2----------------2-------------|
D||-------------2---2-----------------------------0---0-----------------------|
A||-------------------------------------------------------5---5---5---5/------|
D||--2/4--4-------4-----2--2------2----0--0---------0-------------------------|


   ...see
E||---------------------------------------------------------------------------|
B||----------2---3p2----2------3h2-----------2------3p2----5--------5---------|
G||-2--2-----2---2---2--2---2--2-------------2------2---2--2----2---2---------|
D||-2--2-------2-----2------2---------2--2------2-------2-----2---------------|
A||-0--0-------0----------------------0--0------0-----------------------------|
D||---------------------------------------------------------------4-----------|


E||----------------------------------------------------------------------------|
B||--5---5------5---5--5--------5---5-5--------5--5-5-----5--2-3---------------|
G||--2---2------2---2--2--------2---2-2--------2--2-2-----2--2-2---------------|
D||----------------------------------------------------------------------------|
A||----------------------------------------------------------------------------|
D||----4-----4-4------4-----4--4-----4----4-4------4---4-4---------------------|


E||---------------------------------------------------------------------------|
B||----------2---3p2----5p2----3h2-----------2------3p2----5----2-----2-------|
G||-0h2-2----2---2---2--2---2--2-------------2------2---2--2----2--2--2-------|
D||-0h2-2------2-----2------2---------2--2------2-------2----------2----------|
A||-0---0------0----------------------0---------0-----------------------------|
D||---------------------------------------------------------------------------|


E||---------------------------------------------------------------------------|
B||-------2-----------------2----------------2--------2--------2----------2---|
G||-------2--2---2----------2--2---2----2----2--2-----2----2---2--2-------2---|
D||---------------------------------------------------------------------------|
A||---------------------------------------------------------------------------|
D||-2/4-4------4-----4---4-------4---4---4---------4------4----4---4-----4----|

					  			move..
E||---------------------------------------------------------------------------|
B||----------2---3p2----5p2----3h2-----------2------3p2----5----------2-------|
G||-0h2-2----2---2---2--2---2--2-------------2------2---2--2----2--2--2-------|
D||-0h2-2------2-----2------2---------2--2------2-------2----------2----------|
A||-0---0------0----------------------0---------0-----------------------------|
D||---------------------------------------------------------------------------|

   ...along
E||---------------------------------------------------------------------------|
B||----------2---------------2-------------------2-------2-----2------2-------|
G||----------2--2---2--------2--2---2------2--2--2--2--2-2-----2------2-------|
D||-------------2---2-------------------------------------------------2-------|
A||-------------------------------------------------------------------0-------|
D||--2/4--4-------4-----2--2------2---0--0------0----0-----0--0--0------------|





Comments


Popular Radiohead tabs & chords
Creep 4 Bass Tabs
Everyone Needs Someone To Hate Bass Tabs
Climbing Up The Walls Chords
Let Down Chords
My Iron Lung Chords
Ripcord Chords
Airbag Drum Tabs
Myxomatosis Tabs
Thinking About You 1 Tabs
You And Whose Army? Tabs


Song lyrics



↑ Back to top | Tablatures and chords are parodies/interpretations of the original songs. You may use it for private study, scholarship, research or language learning purposes only
© 2014 AZChords.com Contact us | Privacy policy | DMCA | Add/correct tabs | Request tabs | Top 50 tabs