» » »

Gagging Order Tabs (ver.2)

Artists:  A B C D E F G H I J K L M N O P Q R S T U V W X Y Z # 

Gagging Order Tabs (ver.2)

Radiohead
Rating:
0/5 (0 votes)

Hard to play? Try these video lessons and learn fast.
                Great Song, this is the best and easiest tab on here i think, its just these parts over 
and over again throughout the song, listen to it and you'll get it.

Tuning is i dont even know CGCGBD
Capo on 3rd fret

D||---0---0---0-0---0-0---0/0---------0-------------------------|
B||---0---1p0-0-3p0-0-1p0-0/0---------0-------------------------|
G||---0---0---0-0---0-0---0/0---------0-------------------------|
C||---2---2---2-2---2-2---2/4—2h4p2p0-0h2-----------------------|
G||-0-0-0-0---0-0---0-0---0/0---------0-------------------------|
C||-------------------------------------------------------------|
                        You can play that hammer on with all the 0s of the other strings

D||-0-0-----0-0-0-------------------------------------|
B||-0-0-----0-0-0-------------------------------------|
G||-0-0-----0-0-0-------------------------------------|
C||-4-2-----2/4-0-------------------------------------|
G||-x-x-----0-0-4-------------------------------------|
C||-4-2-----0-0-x-------------------------------------|

sorry if the chords are kinda off i made this on microsoft word and pasted it on here 
but you can still see what they are just the same
            
Hard to play? Try these video lessons and learn fast. | Correct




comments powered by Disqus
↑ Back to top | Tablatures and chords are parodies/interpretations of the original songs. You may use it for private study, scholarship, research or language learning purposes only