>
 >
Gagging Order 1

Gagging Order 1 Guitar Tabs

Radiohead - Gagging Order 1 chords, tabs, tablatures, lyrics

Guitar lessons | Add/correct | Request | Top 50 tabs Artists:  A B C D E F G H I J K L M N O P Q R S T U V W X Y Z 0-9

Gagging Order 1 Guitar Tabs – Radiohead

CD, Sheet music, Poster

Do you like Gagging Order 1? Share with your friends now
TabsTabs v2Tabs v3
Great Song, this is the best and easiest tab on here i think, its just these parts over 
and over again throughout the song, listen to it and you'll get it.

Tuning is i dont even know CGCGBD
Capo on 3rd fret

D||---0---0---0-0---0-0---0/0---------0-------------------------|
B||---0---1p0-0-3p0-0-1p0-0/0---------0-------------------------|
G||---0---0---0-0---0-0---0/0---------0-------------------------|
C||---2---2---2-2---2-2---2/42h4p2p0-0h2-----------------------|
G||-0-0-0-0---0-0---0-0---0/0---------0-------------------------|
C||-------------------------------------------------------------|
                        You can play that hammer on with all the 0s of the other strings

D||-0-0-----0-0-0-------------------------------------|
B||-0-0-----0-0-0-------------------------------------|
G||-0-0-----0-0-0-------------------------------------|
C||-4-2-----2/4-0-------------------------------------|
G||-x-x-----0-0-4-------------------------------------|
C||-4-2-----0-0-x-------------------------------------|

sorry if the chords are kinda off i made this on microsoft word and pasted it on here 
but you can still see what they are just the same





Comments


Popular Radiohead tabs & chords
Dollars And Cents 3 Bass Tabs
Hungry Bass Tabs
Meeting In The Aisle 3 Bass Tabs
(Nice Dream) Chords
Black Star 1 Tabs
In Limbo 1 Tabs
My Iron Lung 2 Tabs
Steet Spirit Tabs
The Bends 1 Tabs
Lotus Flower Ukulele


Song lyrics



↑ Back to top | Tablatures and chords are parodies/interpretations of the original songs. You may use it for private study, scholarship, research or language learning purposes only
© 2014 AZChords.com Contact us | Privacy policy | DMCA | Add/correct tabs | Request tabs | Top 50 tabs