» » »

Everything In Its Right Place Tabs (ver.1)

Artists:  A B C D E F G H I J K L M N O P Q R S T U V W X Y Z # 

Everything In Its Right Place Tabs (ver.1)

Radiohead
Rating:
0/5 (0 votes)

Hard to play? Try these video lessons and learn fast.
                Evrything in its right place

- it may be cheating but it makes it more accurate.


Intro

B-----------------------------------------------------------------
G--5-------------------------------------------5------------------
D----6-5----5-5-5-6-6-8-8---8-8--5-5-5-6-8-8-8--6-5-5-5-5-6-6-8-8-
A--------3--3-3-3-4-4-6-6-----6--3-3-3-4-6-6-6------3-3-3-4-4-6-6-



"everything....."
D-------8---5-5-5-6-6-6-8-8---
A-------6---3-3-3-4-4-4-6-6---

"in its right place....."

G-5------------------
D--6-5-5-5-5-6-6-8-8-
A------3-3-3-4-4-6-6-
            
Hard to play? Try these video lessons and learn fast. | Correct




comments powered by Disqus
↑ Back to top | Tablatures and chords are parodies/interpretations of the original songs. You may use it for private study, scholarship, research or language learning purposes only