» » »

Radiohead, Everything In Its Right Place Tabs (ver.2)

Artists:  A B C D E F G H I J K L M N O P Q R S T U V W X Y Z # 

Everything In Its Right Place Tabs (ver.2)

Radiohead Tabs
 Rating:
4/5 (4 votes)
Everything In Its Right Place lessons Tabs too difficult? Try these video lessons and learn fast
1
                instrument:organ arr. for guitar
tuning:standard

I've figured out two or three ways to play this so u can figure out the
best sounding one. the riff is the same throughout.

1st version(my fave)

e--8----------------------
b---8--------------------
g----0----------------
d-------------------------
a-------8-7-7/8-10
e---------8-8/9-11

2nd version
e--8-------------------
b----8---6-5-5/6-8
g------0---5-5/6-8
d-----------------------
a-----------------------
e-----------------------

3rd version
e--8-----------------------
b----8------8-8/9---11
g------0-10-9-9/10--12
d---------------------------
a-----------------------------
e----------------------------

this version sounds right to me
version 4
e-8------------------------
b---8--6-------------------
g-----0----9--9/10--12
d---------10-10/11--13
a----------7--7/8---10
e----------8--8/9---11
            
Submit corrections

comments powered by Disqus
↑ Back to top | Radiohead Tabs for Everything In Its Right Place. Lyrics for acoustic guitar and electric guitar. 1 Tablatures and chords are parodies/interpretations of the original songs. You may use it for private study, scholarship, research or language learning purposes only