» » »

Radiohead, Bullet Proofi Wish I Was Tabs (ver.3)

Artists:  A B C D E F G H I J K L M N O P Q R S T U V W X Y Z # 

Bullet Proofi Wish I Was Tabs (ver.3)

Radiohead Tabs
 Rating:
4/5 (4 votes)
Bullet Proofi Wish I Was lessons Tabs too difficult? Try these video lessons and learn fast
                "----------------------------------------------------------------------------
ARTIST ..... Radiohead
SONG ....... Bulletproof.. I Wish I Was
ALBUM ...... The Bends
----------------------------------------------------------------------------


        Hey, this is my first tab, but I’m pretty confident in it. This is the beautiful ninth
on Radiohead’s second album. The one below is an acoustic version I’ve created. I’ll
it some more and maybe add some transitional chords. Please feel free to tell me what 
think of it.
- Listen to the original the get the strumming technique.
- This is a high song to sing… Thom Yorke sings the last 4 ‘proof’s at the end of the
in falsetto.

----------------------------------------------------------------------------

Intro:   (Play 2 Times)
======
1|---0----0--0--0------0----0--0--0---|---2----2--2--2------2----2--2--2---|
2|---1----1--1--1------0----1--1--0---|---3----3--3--3------3----3--3--3---|
3|---2----2--2--2------0----0--0--0---|---4----4--4--4------2----2--2--2---|
4|---2----2--2--2------2----2--2--2---|---4----4--4--4------4----4--4--4---|
5|---0----0--0--0------2----2--2--2---|---2----2--2--2------0----0--0--0---|
6|---0----0--0--0------0----0--0--0---|---2----2--2--2------x----x--x--x---|


End of Intro:   (Play 1 Time)
======
1|---2----2--2--2---|
2|---3----3--3--3---|
3|---2----2--2--2---|
4|---4----4--4--4---|
5|---0----0--0--0---|
6|---x----x--x--x---|

Verse 1:
======
 “Limb by limb and tooth by tooth,      tearing    up     inside  of  me.”
1|---0----0--0--0------0----0--0--0---|---2----2--2--2------2----2--2--2---|
2|---1----1--1--1------0----1--1--0---|---3----3--3--3------3----3--3--3---|
3|---2----2--2--2------0----0--0--0---|---4----4--4--4------2----2--2--2---|
4|---2----2--2--2------2----2--2--2---|---4----4--4--4------4----4--4--4---|
5|---0----0--0--0------2----2--2--2---|---2----2--2--2------0----0--0--0---|
6|---0----0--0--0------0----0--0--0---|---2----2--2--2------x----x--x--x---|

    “Every     day,     every    hour;     I   wish   that  I ...     ...”
1|---0----0--0--0------0----0--0--0---|---2----2--2--2------2----2--2--2---|
2|---1----1--1--1------0----1--1--0---|---3----3--3--3------3----3--3--3---|
3|---2----2--2--2------0----0--0--0---|---4----4--4--4------2----2--2--2---|
4|---2----2--2--2------2----2--2--2---|---4----4--4--4------4----4--4--4---|
5|---0----0--0--0------2----2--2--2---|---2----2--2--2------0----0--0--0---|
6|---0----0--0--0------0----0--0--0---|---2----2--2--2------x----x--x--x---|

        “...was bullet (*) proof.”
1|-----2-----2--2--2----|
2|-----3-----3--3--3----|
3|-----2-----2--2--2----|
4|-----4-----4--4--4----|
5|-----0-----0--0--0----|
6|-----x-----x--x--x----|

(*)Repeat first part of intro

Verse 2:
======
     “Wax    me,       mold      me;     heat the pins  and stab them in.”
1|---0----0--0--0------0----0--0--0---|---2----2--2--2------2----2--2--2---|
2|---1----1--1--1------0----1--1--0---|---3----3--3--3------3----3--3--3---|
3|---2----2--2--2------0----0--0--0---|---4----4--4--4------2----2--2--2---|
4|---2----2--2--2------2----2--2--2---|---4----4--4--4------4----4--4--4---|
5|---0----0--0--0------2----2--2--2---|---2----2--2--2------0----0--0--0---|
6|---0----0--0--0------0----0--0--0---|---2----2--2--2------x----x--x--x---|

 “You have turned me   into    this...    just wish that it...”
1|---0----0--0--0------0----0--0--0---|---2----2--2--2------2----2--2--2---|
2|---1----1--1--1------0----1--1--0---|---3----3--3--3------3----3--3--3---|
3|---2----2--2--2------0----0--0--0---|---4----4--4--4------2----2--2--2---|
4|---2----2--2--2------2----2--2--2---|---4----4--4--4------4----4--4--4---|
5|---0----0--0--0------2----2--2--2---|---2----2--2--2------0----0--0--0---|
6|---0----0--0--0------0----0--0--0---|---2----2--2--2------x----x--x--x---|

      "...was  bullet  (**)  p r - o - o - o - f..."
1|-----2-----2--2--2----|
2|-----3-----3--3--3----|
3|-----2-----2--2--2----|
4|-----4-----4--4--4----|
5|-----0-----0--0--0----|
6|-----x-----x--x--x----|

(**)Start acoustic riff

Acoustic Riff:   (Play Two Times)
======
    " ... p - r - o  -  o  -  o  -  o  -  o  -  o...
1|----10-----10---10---10----|----10-----10---10---10----|
2|----12-----12---12---12----|----12-----12---12---12----|
3|----12-----12---12---12----|----11-----11---12---11----|
4|----12-----12---12---12----|----12-----12---12---12----|
5|----10-----10---10---10----|----10-----10---10---10----|
6|----10-----10---10---10----|----10-----10---10---10----|

     ...o  -  o  -  o  -  f."
1|----12-----12---12---12----|----12-----12---12---12----|
2|----12-----12---12---12----|----12-----12---12---12----|
3|-----9------9----9----9----|-----9------9----9----9----|
4|----11-----11---11---11----|----11-----11---11---11----|
5|-----0------0----0----0----|-----0------0----0----0----|
6|-----x------x----x----x----|-----x------x----x----x----|

End of Riff:   (Play One Time)
======
                  >let ring>
1|-------6---6---6 ~ ~ ~ ~ |
2|-------6---6---6 ~ ~ ~ ~ |
3|-------7---7---7 ~ ~ ~ ~ |
4|-------8---8---8 ~ ~ ~ ~ |
5|-------8---8---8 ~ ~ ~ ~ |
6|-------6---6---6 ~ ~ ~ ~ |

Verse 3:
======

   “So pay the money and take a shot;    lead  -  fill  the  hole in  me.”
1|---0----0--0--0------0----0--0--0---|---2----2--2--2------2----2--2--2---|
2|---1----1--1--1------0----1--1--0---|---3----3--3--3------3----3--3--3---|
3|---2----2--2--2------0----0--0--0---|---4----4--4--4------2----2--2--2---|
4|---2----2--2--2------2----2--2--2---|---4----4--4--4------4----4--4--4---|
5|---0----0--0--0------2----2--2--2---|---2----2--2--2------0----0--0--0---|
6|---0----0--0--0------0----0--0--0---|---2----2--2--2------x----x--x--x---|

    “I could burst  a  million bubbles,   all   surrogate...”
1|---0----0--0--0------0----0--0--0---|---2----2--2--2------2----2--2--2---|
2|---1----1--1--1------0----1--1--0---|---3----3--3--3------3----3--3--3---|
3|---2----2--2--2------0----0--0--0---|---4----4--4--4------2----2--2--2---|
4|---2----2--2--2------2----2--2--2---|---4----4--4--4------4----4--4--4---|
5|---0----0--0--0------2----2--2--2---|---2----2--2--2------0----0--0--0---|
6|---0----0--0--0------0----0--0--0---|---2----2--2--2------x----x--x--x---|

            "and  bullet-
1|-----2-----2--2--2----|
2|-----3-----3--3--3----|
3|-----2-----2--2--2----|
4|-----4-----4--4--4----|
5|-----0-----0--0--0----|
6|-----x-----x--x--x----|

Acoustic Riff:   (Play Four Times & Fade Out)
======
    " ... p - r - o  -  o  -  o  -  o  -  o  -  o...
1|----10-----10---10---10----|----10-----10---10---10----|
2|----12-----12---12---12----|----12-----12---12---12----|
3|----12-----12---12---12----|----11-----11---12---11----|
4|----12-----12---12---12----|----12-----12---12---12----|
5|----10-----10---10---10----|----10-----10---10---10----|
6|----10-----10---10---10----|----10-----10---10---10----|

     ...o  -  o  -  o  -  f."
1|----12-----12---12---12----|----12-----12---12---12----|
2|----12-----12---12---12----|----12-----12---12---12----|
3|-----9------9----9----9----|-----9------9----9----9----|
4|----11-----11---11---11----|----11-----11---11---11----|
5|-----0------0----0----0----|-----0------0----0----0----|
6|-----x------x----x----x----|-----x------x----x----x----|

Last Chord:   (Play One Time)
======
                  >let ring>
1|-------6---6---6 ~ ~ ~ ~ |
2|-------6---6---6 ~ ~ ~ ~ |
3|-------7---7---7 ~ ~ ~ ~ |
4|-------8---8---8 ~ ~ ~ ~ |
5|-------8---8---8 ~ ~ ~ ~ |
6|-------6---6---6 ~ ~ ~ ~ |


----------------------------------------------------------------------------
"            
Submit corrections

comments powered by Disqus
↑ Back to top | Radiohead Tabs for Bullet Proofi Wish I Was. Lyrics for acoustic guitar and electric guitar. Tablatures and chords are parodies/interpretations of the original songs. You may use it for private study, scholarship, research or language learning purposes only