» » »

Radiohead, Bullet Proofi Wish I Was Tabs (ver.2)

Artists:  A B C D E F G H I J K L M N O P Q R S T U V W X Y Z # 

Bullet Proofi Wish I Was Tabs (ver.2)

Radiohead Tabs
Rating:
0/5 (0 votes)
Bullet Proofi Wish I Was lessons Tabs too difficult? Try these video lessons and learn fast
                "Bullet Proof...I Wish I Was" by Radiohead

        EADGe
Am7     x02010
Cmaj7   x32000
Bm?     x20032
Dsus2   xx0230
Csus2   x3003x
G/B     x2003x
G       320033
Cadd9   x3203x
Bb6     x1303x

Verse

Am7 | Cmaj7 | Bm? | Dsus2 *(Csus2  G/B) | Am7 | Cmaj7 | Bm? | Dsus2 | Dsus2  | 

*= only now and then but not all the time

Chorus

G  | Bm? | Cadd9 | Cadd9 | G | Bm? | Cadd9 | Bb6


Chorus Riff
e---------0----------------0--------------------------0------------------------
B--------12----12---------12----12----12------------7-7---7-------7---7--------
G-11p0------------11p0----------------11--11p0--7p0-0-------7p0-0---------0---0
D------12---12---------12----12----12---------------7---7-------7---7---7---5--
A------------------------------------------------------------------------------
E------------------------------------------------------------------------------
                                               
                                              *Bb6
e------------0---------------0-----------------
B--------5-------------5-----------------5-----3
G--4p0-----0----4p0-------0--------0-----------0
D------5------------5-----------5-----5--------3
A----------------------------------------------1
E----------------------------------------------

*= strummed slowly
            
Submit corrections

comments powered by Disqus
↑ Back to top | Radiohead Tabs for Bullet Proofi Wish I Was. Lyrics for acoustic guitar and electric guitar. Tablatures and chords are parodies/interpretations of the original songs. You may use it for private study, scholarship, research or language learning purposes only