» » »

Radiohead, Bodysnatchers Tabs (ver.4)

Artists:  A B C D E F G H I J K L M N O P Q R S T U V W X Y Z # 

Bodysnatchers Tabs (ver.4)

Radiohead Tabs
Rating:
0/5 (0 votes)
Bodysnatchers lessons Tabs too difficult? Try these video lessons and learn fast
                (Intro)
-------------------------------------------------------------------------------
                             Bodysnatchers - Radiohead
-------------------------------------------------------------------------------

Tuning:Drop D  (D A D G B E)

Guitar I:Lots of bassy Distortion

repeat 2x
e|------------------------------------|
B|------------------------------------|
G|------------------------------------|
D|------------------------------10-12-|
A|--9-xx-10-xx-12---------10-12-------|
D|--0-xx--0-xx--0---10h12-------------|

e|-----------------------------------------------------------------------|
B|-----------------------------------------------------------------------|
G|-----------------------------------------------------------------------|
D|-------------10---------------10-12---------------9--------------10-12-|
A|-xx-9-x-10-x------------10-12-------xx-9-x-10-x------------10-12-------|
D|-xx-0-x--0-x------10h12-------------xx-0-x--0-x------10h12-------------|

When drums kick in
e|-------------------------------------|
B|-------------------------------------|
G|-------------------------------------|
D|------------------------------10h12--|
A|--9---10---12-----------10h12--------|
D|--0----0----0-----10h12--------------|

e|---------------------------------------------------------------------|
B|---------------------------------------------------------------------|
G|---------------------------------------------------------------------|
D|-----------10-----------------10h12-----------9----------------10h12-|
A|--9---10----------------10h12--------9---10--------------10h12-------|
D|--0----0----------10h12--------------0----0--------10h12-------------|

e|-------------------------------------|
B|-------------------------------------|
G|---------------------------------12v-|
D|------------------------------10-----|
A|--9---10---12-----------10h12--------|
D|--0----0----0-----10h12--------------|

Guitar II:Mild distortion
e|-------------------------------------|
B|-------------------------------------|
G|-------------------------------------|
D|-----------10/0---------------10h12--|
A|--9---10----------------10h12--------|
D|------------------10h12--------------|

e|-------------------------------------|
B|-------------------------------------|
G|-------------------------------------|
D|------------9/0---------------10h12--|
A|--9---10----------------10h12--------|
D|------------------10h12--------------|

repeat 2x
e|-------------------------------------|
B|-------------------------------------|
G|-------------------------------------|
D|------------------------------10h12--|
A|--9---10---12/0---------10h12--------|
D|------------------10h12--------------|
            
Submit corrections

comments powered by Disqus
↑ Back to top | Radiohead Tabs for Bodysnatchers. Lyrics for acoustic guitar and electric guitar. Tablatures and chords are parodies/interpretations of the original songs. You may use it for private study, scholarship, research or language learning purposes only