» » »

Bodysnatchers Tabs (ver.3)

Artists:  A B C D E F G H I J K L M N O P Q R S T U V W X Y Z # 

Bodysnatchers Tabs (ver.3)

Radiohead
Rating:
0/5 (0 votes)

Hard to play? Try these video lessons and learn fast.
                (Intro)
Bodysnatchers Intro (live at Koko)

Gtr I (D A D G B E): Drop D tuning.

|---------------------------------------------------------|
|---------------------------------------------------------|
|---------------------------------------------------------|
|---------------------10h12----------------------10h12----|
|-9-10-12-------10h12--------9-10-15-------10h12----------|
|-0--0--0-10h12--------0-----0--0--0-10h12----------------|

|---------------------------------------------------------|
|---------------------------------------------------------|
|---------------------------------------------------------|
|---------------------10h12----------------------10h12----|
|-9-10-14-------10h12--------9-10-12-------10h12----------|
|-0--0--0-10h12--------0-----0--0--0-10h12----------------|
            
Hard to play? Try these video lessons and learn fast. | Correct




comments powered by Disqus
↑ Back to top | Tablatures and chords are parodies/interpretations of the original songs. You may use it for private study, scholarship, research or language learning purposes only