>
 >
Bodysnatchers

Bodysnatchers Bass Tabs

Radiohead - Bodysnatchers chords, tabs, tablatures, lyrics

Guitar lessons | Add/correct | Request | Top 50 tabs Artists:  A B C D E F G H I J K L M N O P Q R S T U V W X Y Z 0-9

Bodysnatchers Bass Tabs – Radiohead

CD, Sheet music, Poster

Do you like Bodysnatchers? Share with your friends now
Bass TabsTabsTabs v2
/ = Slide up
\ = Slide down


0:12
G|---------|----------|
D|---------|----------|
A|5-5--5-5-|5-5--7\-3-| x22
E|---------|----------|

1:00
|---------|------------|------------|------------|------------|
|---------|-------7p5--|-------7p5--|-------7p5--|-------7p5--|
|5-5--5-5-|5-5h7p5-----|5-5h7p5-----|5-5h7p5---7-|5-5h7p5-----| x2
|---------|------------|------------|------------|------------|

1:18
|---------|----------|
|---------|-----7\---|
|5-5--5-5-|5-5-----3-|
|---------|----------|                         
                                      
1:20                                             
|---------|----------|     |---------|-----------|
|---------|----------|     |---------|-----------|
|5-5--5-5-|5-5--7\-3-| x3  |5-5--5-5-|5--------5-|
|---------|----------|     |---------|---5--7----|
                                     (^Quarter notes)
1:32
|---------|----------|     |---------|-----------|
|---------|----------|     |---------|------9\---|
|5-5--5-5-|5-5--7\-3-| x6  |5-5--5-5-|5-5/-----3-|
|---------|----------|     |---------|-----------|

1:52
|---------|----------|
|---------|----------|
|5-5--5-5-|5-5--7\-3-| x2
|---------|----------|

1:58
|---------|------------|------------|------------|------------|
|---------|-------7p5--|-------7p5--|-------7p5--|-------7p5--|
|5-5--5-5-|5-5h7p5-----|5-5h7p5-----|5-5h7p5-----|5-5h7p5-----|
|---------|------------|------------|------------|------------|

2:07
|---------|---------|---------|---------|---------|---------|--------|
|---------|---------|---------|---------|---------|---------|--------|
|---------|---------|-55--5-5-|5-5--5-5-|533--3-3-|3-3--3-3-|3-------|
|033--3-3-|3-3--3-3-|3--------|---------|---------|---------|-33--3-3|

---------|
---------|
3-3--3-3-| x3
---------|

2:41
|------------------------------------------------------------------------|
|5535-535-535--35--------------------------------------------------------|
|----------------5535-535-535--53-33h43-3h43-3h43-3h4--------------------|
|----------------------------------------------------222h32-2h32-2h32-2h3|

2:53
|---------------------------------------------------------------------------
|-------5-5-5-5-----------------5-5-5-5---------7-7-7-7---------------------
|5555555--------6-6-6-6-8-8-8-8---------6-6-6-6---------6--6-66-6-6-6-4-6-46
|---------------------------------------------------------------------------

---------------|
---------------|
-66--6-6--6-4\-|
---------------|

3:09
|---------|---------|---------|----------|    |---------|----------|
|---------|---------|---------|----------|    |---------|----------|
|5-5----5-|5-5----5-|5-5----5-|5-5----5p0| x2 |5-5----5-|5-5----5p0|
|----5h7--|----5h7--|----5h7--|----5h7---|    |----5h7--|----5h7---|

----------|----------|
----------|----------|
5-5----5p0|5-5----5p0|
----5h7---|----5h7---|

3:32
|----------|----------|                           |----------|-----------|
|----------|----------|                           |----------|-----------|
|5-5----5p0|5-5----3h4| x7. Then the 8th time is: |5-5----5p0|5-5----5675|
|----5h7---|----5h7---|                           |----5h7---|----5h7----|





Comments


Popular Radiohead tabs & chords
Fake Plastic Trees 3 Bass Tabs
The Bends Chords
Bullet Proof I Wish I Was Tabs
Idioteque 1 Tabs
Maquiladora Tabs
Packt Like Sardines In A Crushd Tin Box Tabs
Wolf At Your Door Tabs
Fog Again Ukulele
House Of Card Ukulele
How Do You Ukulele


Song lyrics



↑ Back to top | Tablatures and chords are parodies/interpretations of the original songs. You may use it for private study, scholarship, research or language learning purposes only
© 2014 AZChords.com Contact us | Privacy policy | DMCA | Add/correct tabs | Request tabs | Top 50 tabs